Oops, an error
Loading. Please wait.

Sharp Dressed Man Bass Tab

version 1
version 1

Whole song

Interactive

1,419,553 views 78 this week
4 commentsread comments
1 2 3 4 5
x 15
add to favorites
launch autoscroll
font size
0
reset
guitar tuner
Autoscroll
slow
fast
+/-
esc
set tempo
stop
Help us to improve Ultimate-Guitar.com Take our survey!
×
ZZ Top - "Sharp Dressed Man" - Bass Tab

[Intro]
   C5                      C5
|------------------|--------------|
|*-----------------|-------------*|
|*-3-3-3-3-3-3-3-3-|-3-3-3-3-R-R-*| (x4)
|------------------|--------------|
   1 & 2 & 3 & 4 &   1 & 2 & 3 4

[Verse]
   C5              C5                      Bb5           F5
|------------------|-----------------|-----------------|------------------|
|*-----------------|-----------------|-----------------|-----------------*|
|*-3-3-3-3-3-3-3-3-|-3-3-3-3-3-3-3-3-|-1-1-1-1-1-1-1-1-|-----------------*| (x2)
|------------------|-----------------|-----------------|-1-1-1-1-1-1-1-1--|
   1 & 2 & 3 & 4 &   1 & 2 & 3 & 4 &   1 & 2 & 3 & 4 &   1 & 2 & 3 & 4 &

[Chorus]
  G5                G5                C5        C5
|-----------------|-----------------|---------|-------------|
|-----------------|-----------------|---------|-------------|
|-----------------|-----------------|-3-R-R-R-|-R-R-R-0-1-2-|
|-3-3-3-3-3-3-3-3-|-3-3-3-3-3-3-3-3-|---------|-------------|
  1 & 2 & 3 & 4 &   1 & 2 & 3 & 4 &   1 2 3 4   1 2 3 & 4 &

   C5                      C5
|------------------|--------------|
|*-----------------|-------------*|
|*-3-3-3-3-3-3-3-3-|-3-3-3-3-R-R-*| (x2)
|------------------|--------------|
   1 & 2 & 3 & 4 &   1 & 2 & 3 4

[Verse]
   C5              C5                      Bb5           F5
|------------------|-----------------|-----------------|------------------|
|*-----------------|-----------------|-----------------|-----------------*|
|*-3-3-3-3-3-3-3-3-|-3-3-3-3-3-3-3-3-|-1-1-1-1-1-1-1-1-|-----------------*| (x2)
|------------------|-----------------|-----------------|-1-1-1-1-1-1-1-1--|
   1 & 2 & 3 & 4 &   1 & 2 & 3 & 4 &   1 & 2 & 3 & 4 &   1 & 2 & 3 & 4 &

[Chorus]
  G5                G5                C5        C5
|-----------------|-----------------|---------|-------------|
|-----------------|-----------------|---------|-------------|
|-----------------|-----------------|-3-R-R-R-|-R-R-R-0-1-2-|
|-3-3-3-3-3-3-3-3-|-3-3-3-3-3-3-3-3-|---------|-------------|
  1 & 2 & 3 & 4 &   1 & 2 & 3 & 4 &   1 2 3 4   1 2 3 & 4 &

[Solo]
   C5
|-------------------|
|*-----------------*|
|*-3-3-3-3-3-3-3-3-*|(x19)
|-------------------|
   1 & 2 & 3 & 4 &
  C5
|---------|
|---------|
|-3-1-----|
|-----3---|
  1 2 3 4

   F5                 F5                C5                C5
|-------------------|-----------------|-----------------|------------------|
|*------------------|-----------------|-----------------|-----------------*|
|*------------------|-----------------|-3-3-3-3-3-3-3-3-|-3-3-3-3-3-3-3-3-*| (x2)
|--1-1-1-1-1-1-1-1--|-1-1-1-1-1-1-1-1-|-----------------|------------------|
   1 & 2 & 3 & 4 &    1 & 2 & 3 & 4 &   1 & 2 & 3 & 4 &   1 & 2 & 3 & 4 &

  C5
|---------|
|---------|
|-3-1-----|
|-----3---|
  1 2 3 4

   C5                      C5
|------------------|--------------|
|*-----------------|-------------*|
|*-3-3-3-3-3-3-3-3-|-3-3-3-3-R-R-*| (x2)
|------------------|--------------|
   1 & 2 & 3 & 4 &   1 & 2 & 3 4

[Verse]
   C5              C5                      Bb5           F5
|------------------|-----------------|-----------------|------------------|
|*-----------------|-----------------|-----------------|-----------------*|
|*-3-3-3-3-3-3-3-3-|-3-3-3-3-3-3-3-3-|-1-1-1-1-1-1-1-1-|-----------------*| (x2)
|------------------|-----------------|-----------------|-1-1-1-1-1-1-1-1--|
   1 & 2 & 3 & 4 &   1 & 2 & 3 & 4 &   1 & 2 & 3 & 4 &   1 & 2 & 3 & 4 &

[Chorus]
  G5                G5                C5        C5
|-----------------|-----------------|---------|-------------|
|-----------------|-----------------|---------|-------------|
|-----------------|-----------------|-3-R-R-R-|-R-R-R-0-1-2-|
|-3-3-3-3-3-3-3-3-|-3-3-3-3-3-3-3-3-|---------|-------------|
  1 & 2 & 3 & 4 &   1 & 2 & 3 & 4 &   1 2 3 4   1 2 3 & 4 &

[End:]
   C5
|-------------------|
|*-----------------*|
|*-3-3-3-3-3-3-3-3-*|(x20)
|-------------------|
   1 & 2 & 3 & 4 &

   F5            (x4)  C5            (x4)    
|--------------------|-------------------|
|*------------------*|*-----------------*|
|*------------------*|*-3-3-3-3-3-3-3-3-*|  (repeat to fade-out)
|--1-1-1-1-1-1-1-1---|-------------------|
   1 & 2 & 3 & 4 &      1 & 2 & 3 & 4 &   
 
Song Structure:
[Intro]
[Verse]
[Chorus]
[Solo]
[Verse]
[Chorus]
end


By: Johari Taylor
E-mail: viking@powerup.com.au
Suggest correction
comments
print report bad tab
4 comments total. Showing first comments.
-1 reply
zjcl1 104 Feb 21, 2011 10:58 PM

what are the stars for

0 reply
wlbravo1 10 May 06, 2013 04:17 PM

they stand for end of measures

0 reply
Devo177 10 May 11, 2013 03:20 AM

They are repeat signs...

guest
You may want to rate the tab now too:
select rating
Wanna post a correction for this tab? Suggest correction