Oops, an error
Loading. Please wait.

Sharp Dressed Man Tab

version 2
version 2

Whole song

Interactive

125,604 views 78 this week
7 commentsread comments
1 2 3 4 5
x 24
add to favorites
launch autoscroll
font size
0
reset
how to read this tab
guitar tuner
Autoscroll
slow
fast
+/-
esc
set tempo
stop
Help us to improve Ultimate-Guitar.com Take our survey!
×
Author
Gtr I (E A D G B E) - 'Billy Gibbons - dirty electric'
Gtr II (E A D G B E) - 'Billy Gibbons - dirty electric'

mullenman223@yahoo.com


[Intro]

Q=124
4/4
Gtr I

     Q   Q  E E Q     E E E E +E  E S S E  6x
e||----------------|-----------------------||
B||o---------------|----------------------o||
G||-----10--8-5----|-10-8---5-(5)----------||
D||--5--10--8-5----|-10-8---------------5--||
A||o-3-------------|----------------1s3---o||
E||----------------|--------------3--------||


[Verse 1]

   Q  Q  E E S S E   Q  Q  E E E E   Q  Q  Q  E E   Q  Q  E E S S E
e|-----------------|---------------|--------------|------------------|
B|-----------------|---------------|--------------|------------------|
G|-----------------|---------------|--------------|------------------|
D|-5-------------5-|-5-------x-5s3-|-3--------3-5-|---------------5--|
A|-3---------1s3---|-3-------x-3s1-|-1--------1-3-|-3---------1s3----|
E|---------3-------|---------3-----|--------------|-1-------3--------|


   Q  Q  E E S S E   Q  Q  E E E E   Q  Q  Q  E E   H    Q  E S S
e|-----------------|---------------|--------------|----------------|
B|-----------------|---------------|--------------|----------------|
G|-----------------|---------------|--------------|----------------|
D|-5-------------5-|-5-------x-5s3-|-3--------3-5-|----------------|
A|-3---------1s3---|-3---------3s1-|-1--------1-3-|-3-------3s5-5--|
E|---------3-------|---------3-----|--------------|-1-------1s3-3--|


   Q  Q  Q  E E   E E Q  E E E E   Q  +Q    H      H    E E E E
e|--------------|----------------|---------------|----------------|
B|--------------|----------------|---------------|----------------|
G|--------------|----------------|---------------|--------8-3-3s==|
D|--------------|------------3s5-|-5--(5)\-------|--------8-3-3s==|
A|-5--------3-5-|-3s5--------1s3-|-3--(3)\-------|----------1-1s==|
E|-3--------1-3-|-1s3------x-----|---------------|----------------|


            ~~~~~~          ~
   Q   Q  E E +Q      E E E E +E  E S S E
e|-----------------|----------------------|
B|-----------------|----------------------|
G|-5--10--8-5-(5)--|-10-8---5-(5)---------|
D|-5--10-----------|-10-8---------------5-|
A|-3---------------|----------------1s3---|
E|-----------------|--------------3-------|


            ~~~~~~
   Q   Q  E E +Q      E E E E      +E    E S S E
e|-----------------|------------------------------||
B|-----------------|------------------------------||
G|----10--8-5-(5)--|-10-8---5b5.5==(5.5)----------||
D|-5--10--8--------|-10-8----------------------5--||
A|-3---------------|-----------------------1s3----||
E|-----------------|---------------------3--------||


[Verse 2]

   Q  Q  E E S S E   Q  Q  E E E E   Q  Q  Q  E E
e|-----------------|---------------|--------------|
B|-----------------|---------------|--------------|
G|-----------------|---------------|--------------|
D|-5-------------5-|-5---------5s3-|-3--------3s5-|
A|-3---------1s3---|-3-------x-3s1-|-1--------1s3-|
E|---------3-------|---------3-----|--------------|
  Rhy Fig 1

   Q  Q  E e S S E   Q  Q  E E S S E   E E Q  Q  a E E
e|-----------------|-----------------|------------------|
B|-----------------|-----------------|------------------|
G|-----------------|-----------------|------------------|
D|---------------5-|-5-------------5-|-5-5---------3s5--|
A|-3---------1s3---|-3---------1s3---|-3-3---------1s3--|
E|-1-------3-------|---------3-------|-----------x------|


   Q  Q  Q  E E   Q  Q  Q  a E E   E E Q  Q  E E
e|--------------|----------------|---------------|
B|--------------|----------------|---------------|
G|--------------|----------------|---------------|
D|-3--------3-3-|----------------|---------------|
A|-1--------1-1-|-3--------x-3s5-|-5-5-------3s5-|
E|--------------|-1----------1s3-|-3-3-------1s3-|


   +E  E Q  Q  E E   Q  E E H      H    E E E E
e|-----------------|-------------|---------------|
B|-----------------|-------------|---------------|
G|-----------------|-------------|--------8---4s=|
D|-------------3-5-|-5-----------|--------8-8-4s=|
A|-(5)-5-------1-3-|-3-----------|----------8----|
E|-(3)-3-----------|----x--------|---------------|
                 end Rhy Fig 1 -|


[Guitar Solo]

   E E E E Q   E a E   +E  E E E Q   E a E   +E  E E E E E E E
e|-------------------|---------------------|-------------------|
B|-------------------|---------------------|-------------------|
G|-5-5-5-5-5\----3S5-|-(5)-5-5-5-5\----3S5-|-(5)-5s3s5-5-5s3s5-|
D|-5-5-5-5-5\----3S5-|-(5)-5-5-5-5\----3S5-|-(5)-5s3s5-5-5s3s5-|
A|-------------------|---------------------|-------------------|
E|-------------------|---------------------|-------------------|


                                                  ~~~~~~~~~~~
   E E E E Q   E E   E E E E E a E E  E   +E  E E E +E  +E  S S  E
e|-----------------|--------------------|--------------------------|
B|-----------------|---8-8-8s6-4s5---/7-|-(7)-8--------------------|
G|-5-5-5-5-5\----5s|=9---------4s5-5----|-------8-5-(5)-(5)s3p0-/9-|
D|-5-5-5-5-5\------|--------------------|---------5-(5)-(5)--------|
A|-----------------|--------------------|--------------------------|
E|-----------------|--------------------|--------------------------|


                            ~~~~~~~~~~~
   +E  E E S S E E S S E    Q  E E +Q   E  E    E  E  E  E  Q   E  E
e|-----------------------|-/8--8-8-(8)-------|------------------------|
B|-----8s7-----8-8-8s7---|-/8--8-8-(8)----10s|=11-11-11-11-11\----10s=|
G|-(9)-----7s9-----8s7-5-|--------------x-11s|=12-12-12-12-12\----11s=|
D|---------------------5-|-------------------|------------------------|
A|-----------------------|-------------------|------------------------|
E|-----------------------|-------------------|------------------------|


                ~~~                                ~
    E  E  E  E  Q.    E    E  E  E  E  E.  S E E   Q   E E E Q  E
e|----------------------|-----------------/8-----|----------------|
B|-11-11-11-11-11----10s|=11-11-11-11-11\-/8---7s|=8--/5---5------|
G|-12-12-12-12-12----11s|=12-12-12-12-12\----8---|-------5-5-5----|
D|----------------------|------------------------|-------5---5--5-|
A|----------------------|------------------------|----------------|
E|----------------------|------------------------|----------------|


   E E E E E E E E   E E E E E.S a E E   E E E E E E E E
e|-----------------|-------------------|-----------------|
B|-----------------|---------4s5-------|-----------------|
G|-5-5s3---5-5s3---|-5-5s3-------5s3---|-5-5s3---5-5s3---|
D|-------5-------5-|-------5---------5-|-------5-------5-|
A|-----------------|-------------------|-----------------|
E|-----------------|-------------------|-----------------|


                                                ~~~
   E E E E Q.   E     E E E E a Q  E E   E E E  E  +E  Q   E
e|-----------------|-------------------|----------------------|
B|-----------------|-------------------|----------------------|
G|-5-5s3---5\------|-/5---5-5s3s5s=3---|---5----5--(5)-5\-----|
D|-------5-5\------|-/5-5-----3s5s=3-3s|=5---5-(5)-(5)-5\--1s=|
A|--------------1/-|-------------------|----------------------|
E|-----------------|-------------------|----------------------|


   E E E E E E E E   E Q  E +Q.   E
e|-----------------|----------------|
B|---------4s5-----|----------------|
G|---5-5-------5---|-5-3----------8-|
D|-5-----5-------5-|-5-3--5-(5)-----|
A|-----------------|------5-(5)-----|
E|-----------------|----------------|


   E E E E E E E E   E E E E       +E     E E E
e|-----------------|-----------------------------|
B|-6---6---6---6---|-6---6-----------------------|
G|---8---8---8---8-|---8---8b10.5==(10.5)-5-0-5--|
D|-----------------|--------------------------5--|
A|-----------------|-----------------------------|
E|-----------------|-----------------------------|


   E E E E E E E E   E E E E    +E  +E  +E  E
e|-----------------|--------------------------|
B|-----------------|------------------------6-|
G|-5-5-5-5-5-5-5-5-|-5---5-8b9==(9)-(9)-(9)---|
D|-5-5-5-5-5-5-5-5-|-5-5-5--------------------|
A|-----------------|--------------------------|
E|-----------------|--------------------------|


   E E E E E E E E   +E  E E E E E E E
e|-----------------|--------------------|
B|-6---6---6-6---6-|-(6)---6------------|
G|---8---8-----8---|-----8---8-8-5---5--|
D|-----------------|---------------7----|
A|-----------------|--------------------|
E|-----------------|--------------------|


   +E  E E     E E E E E   E Q  E +H
e|-----------------------|---------------|
B|-----------------------|---------------|
G|-(5)-5---------5-5-5-5-|-5-3-----------|
D|-------8b8.5-5-----5-5-|-5-3-----------|
A|-----------------------|------5-(5)----|
E|-----------------------|------5-(5)----|


      E  E  E E E  E E E    E E E  E  +E  E S S  E   4x
e||----------------------|---------------------------||
B||o---------------------|--------------------------o||
G||--------10---8--------|-10-8----------------------||
D||--(5)---10---8-10-----|-10-8---10-(10)--------5---||
A||o-(3)----------10-----|--------10-(10)---1s3-(3)-o||
E||------8----8------8-8-|------8---------3----------||


[Verse 3]
Rhy Fig 1

   H    E  E      +E   +E
e|-------------------------|
B|--------11b13==(13)-(13)-|
G|-------------------------|
D|-------------------------|
A|-------------------------|
E|-------------------------|


[Guitar Solo 2]
 Gtr I
                                                    ~~
   E  E E  E E E  E  E   E   E   E   E  E   E  E    E
e|-8----8----8-8-------|------------------------------|
B|---11---11-----------|------------------------------|
G|---------------10----|-8b9---[10]----[8]-[8]--------|
D|------------------10-|------------10---------8---10-|
A|---------------------|------------------------------|
E|---------------------|------------------------------|
 |
 | Gtr II
 | W                     H              E   E  S S  E
e|---------------------|------------------------------|
B|---------------------|------------------------------|
G|---------------------|------------------------------|
D|---------------------|----------------------------5-|
A|---------------------|-----------------------1s3----|
E|---------------------|--------------------3---------|


    +E  E a  E  E   S S E E     E
e|----------------------------------|
B|----------------------------------|
G|----------------------------------|
D|-(10)-8------[8]------------------|
A|--------8s10-----10p8s6-8b10-[6]--|
E|----------------------------------|
 |
 |   E  E    E  E   E   E E     E
e|----------------------------------|
B|-----------4------------4---------|
G|-----------3------------3---------|
D|----------------------------------|
A|---3--3-------3---3---3-------3---|
E|----------------------------------|
 Riff 1

   +H.               +S S      E    E E E E    E E E E
e|-------------------------------|---------------------|
B|-------------------------------|---------------------|
G|-------------------------------|---------------------|
D|-------------------------------|---------------------|
A|-(6)b6.5-----------(6)---------|----6--------6-------|
E|----------------------8b11==11-|-11-----8b11-----8-8-|
 |
 |  E      E E E E E  S S      E 
e|-------------------------------|
B|-----------4-------------------| repeat Riff 1
G|-----------3-------------------|  to next Riff
D|-----------------------------5-|
A|--3------3---3-3----1s3--------|
E|-----------------3-------------|
                    end Riff 1 -|

    E   E      +E  E  E  E E    E        +E  E  E  E E E  E  E
e|------------------------------------|-------------------------|
B|------------------------------------|------8-11----8----------|
G|-[8]-10b11==(11)-8-10----8h==10b12==|=(12)------11---8-10-----|
D|----------------------10------------|---------------------10--|
A|------------------------------------|-------------------------|
E|------------------------------------|-------------------------|


         ~~~~~~~~~~                                   ~~
   E     E      Q   E E E    S  S    E  E   a   E.    S  +E  E E  E
e|--------------------------------|-11-11------------10-(10)-8------------|
B|--------------------------------|----------------------------8-11b11.5==|
G|-8b8.5-8b8.5--------------10s12-|-------(12)s10-------------------------|
D|-------------10p==8-------------|---------------------------------------|
A|--------------------------------|---------------------------------------|
E|--------------------------------|---------------------------------------|


    +E    E E  E  Q   E    E        +E   E  Q   E E  E  E
e|--------8-8----11---8----------|------11-10---8--------------|
B|-(11.5)-----11-----------------|----------------8-11---------|
G|------------------------10b12==|=(12)----10----------10b12===|
D|-------------------------------|-----------------------------|
A|-------------------------------|-----------------------------|
E|-------------------------------|-----------------------------|


    +E   E  Q    E E E    E        +E   E   E E  E E E E
e|------11-10---10s8------------|------11-------10-8-----|
B|------------------------------|------------------------|
G|-(10)----10---10s8-----10b12==|=(12)----\10---10-8-8-8-|
D|------------------------------|------------------------|
A|------------------------------|------------------------|
E|------------------------------|------------------------|


              ~~
    E E  Q    Q     E    E     E  E   E  S  S  E  E  E  E
e|-------------------------|------------------------------|
B|-10-8-----------------10-|-----13-----13----13----11-11-|
G|-10-8-----------/14------|-/14----/14----14----12-------|
D|------10---10------------|------------------------------|
A|-------------------------|------------------------------|
E|-------------------------|------------------------------|

                                                                       ~
    a  E E      E  E  E E      S  S E   +E        E    E.      S +Q    E E
e|------------------------------------|------------------------------------|
B|----------------------------------8-|-(8)b8.5===8------------8-(8)---8-8-|
G|-12s10p8b8.5-------10-8b8.5-------8-|-(8)b8.5==(8.5)-8b8.5---8-(8)---8-8-|
D|-------------10-10----------10------|------------------------------------|
A|-------------------------------10---|------------------------------------|
E|------------------------------------|------------------------------------|


             ~~
   +E  E  E  E  +E  E E    E    Q   E.      S Q    E E
e|---------------------------|--------------------------|
B|-(8)-----------------------|--------------------------|
G|-(8)--------------8-8------|-10---8b8.5-----5------5--|
D|-----x-10-10-(10)-------10-|--------------------/8----|
A|---------------------------|--------------------------|
E|---------------------------|--------------------------|


   E E E E      +E     E S  S E    Q   E  E  E  E E  E
e|------------------------------|------------8-------8-|
B|------------------------------|------x----------8----|
G|-5---5-8b8.5==(8.5)-/8-8h10-8-|------8----10----8-10-|
D|---7--------------------------|-10-----10----10------|
A|------------------------------|----------------------|
E|------------------------------|----------------------|
 |
 |                                 E E E  E  E  E E  E
e|------------------------------|------4----------4----|
B|------------------------------|------4----------4----|
G|------------------------------|--5-------------------|
D|------------------------------|--3-3----3--3--3----3-|
A|------------------------------|----------------------|
E|------------------------------|----------------------|
                               |- Riff 2

    a  E E  E E +E   E E    E    E  E   E  E  S  S   E E  E
e|-------8--8-8-(8)----8----8-|--8-(8)-----8--8-(8)----8--8---|
B|-------8--------------------|-------------------------------|
G|-10s12---10-8-(8)----8---10-|-10p=8-----10-10p=8-----8-10---|
D|------------------10--------|--------10-----------10--------|
A|----------------------------|-------------------------------|
E|----------------------------|-------------------------------|
 |
 |     E E  E E  E   E S S  E    E  E   E  E  E      E E  E
e|----------------------------|---------4--------------4------|
B|----------------------------|---------4--------------4------|
G|--------------------------5-|--5----------------------------|
D|-----3-3--3-3--3-----1s3--3-|--3--3------3--3------3----3---|
A|-------------------3--------|-------------------------------|
E|----------------------------|-------------------------------|


                               |-with Riff 1
    S S  E E  E  a  E E  E   E   E  E E  E E  E E  E
e|--8------8--8-------8--8---8-|----------------------|
B|--------------------8--------|----------------8-(8)-|
G|-10p8----8-10-10s12---10---8h|=9--------------8-(8)-|
D|------10---------------------|---10-8----8-10---10--|
A|-----------------------------|--------10------------|
E|-----------------------------|----------------------|
 |
 |  E    E E  E     E E  S S E
e|-----------------------------|
B|-----------------------------|
G|-----------------------------|
D|--3----3-3--3-----3--------5-|
A|-----------------------1s3-3-|
E|--------------------3--------|
                  end Riff 2 -|


    +E   E E  E E E  E   E   +E  E E E E E E E
e|-------------------------|---------------------|
B|--(8)--------------------|---------------------|
G|--(8)---------8-8-10---8-|-(8)-5-5---5-5---5---|
D|-(10)-10-8----8-8--8---8-|-(8)-----8-----7-5---|
A|-----------10-8-8--8---8-|-(8)-----------------|
E|-------------------------|---------------------|



                        |-with Riff 2
   +E   E E E E E E   E   +E  E E  E E  E E  E
e|----------------------|-------8----8----8--8-|
B|----------------------|----------------------|
G|-(5)-/3-3-5-3-3-3---5-|-(5)-5-8----8----8-10-|
D|-(5)-/3-3-5-3-3-3---5-|-(5)-5---10---10------|
A|----------------------|----------------------|
E|----------------------|----------------------|



    a  E  E  a  E E  E  E  E    E    +E       E  Q    +E   E  E  E
e|--------------8-8--8------------|----------13-----------11-11------|
B|-------11------------13-13---13-|-(13)-----------------------------|
G|-10s12----12s10-8-10-12-12---12-|-(12)b14=====12r==(12)-------12---|
D|--------------------------------|----------------------------------|
A|--------------------------------|----------------------------------|
E|--------------------------------|----------------------------------|


                                     |-with Riff 1
     E  E  E E  E      S  S   E    E    E E  E  E   E   E E E
e|-----10--------------8--8----------|--------------8-----8---|
B|---------------------8--8--11---11-|----8-----------------8-|
G|-\10----10-8-10b12==10-10r-12---12s|=10-8-------------------|
D|-----------------------------------|------10-10-(10)-10-----|
A|-----------------------------------|------------------------|
E|-----------------------------------|------------------------|


                             ~~
   E  E  E E  E E  E    E    Q   E  E  E  E  E E
e|----8--8-8--------------|----------------------|
B|-----------/8-8-11---11-|-11-------------------|
G|-----------/8-8-12---12-|-12-------------------|
D|-8-10-10-8--------------|----------------------|
A|------------------------|----------------------|
E|------------------------|------x-[8]-8-[8]-8-8-|


                               |-with Riff 2
    E  E  S  S  E  E  E S S  E    Q   E  E E E E E
e|-----------------------------|-------------------|
B|-----------------------------|-----------8-----8-|
G|-----------------------------|------8--------8---|
D|-10-----8h10-10-10-10-----10-|-10-----10---------|
A|----------------------6s8----|--8----------8-----|
E|--8-[8]-8-----8--8--8--------|-------------------|


   E  E  E E  E  E E    E    E E  E  E E  E  E E
e|------------------------|----------------------|
B|------------------------|----------------------|
G|------12------12--------|-12------12------12---|
D|---10-10---10-10-----10-|-10---10-10---10-10---|
A|-8-------8-------8----8-|----8--8----8--8----8-|
E|------------------------|----------------------|


                        |-with Riff 1
   E  E  E  E E E E   E   +E   Q   E E E E E
e|----------------------|--------------------|
B|----------------------|--------------------|
G|-8-10-----------------|--------------------|
D|------10-10-8-8-8---8-|-(8)-10-------------|
A|-8--8--8--8-----------|----------8---8-8-8-|
E|----------------------|--------------------|


   +E   E E  E  +E       E E    E         E  E E E +E  S S E E
e|-------------------------------------|-----------------------*|
B|-------------------------------------|-----------------------*|
G|-------------------------------------|-----------------------*|
D|-----10------------------------------|-10--------------------*|
A|-(8)-10----------------8-8-----------|----10---------6---6---*|
E|--------8-11-(11)b11.5-------11b11.5-|-------8-8-(8)---8---8-*|



************************************

| (n)  Ghost note
| s    Slap
| x    Dead note
| b    Bend
| \    Slide down
| /    Slide up
| p    Pull-off
| h    Hammer-on
| r    Release

************************************
Suggest correction
comments
print report bad tab
7 comments total. Showing first comments.
0 reply
tman4000 72 Sep 27, 2006 07:37 PM

Sorry man...it just doesnt sound right....

0 reply
tman4000 72 Nov 13, 2006 09:07 PM

solo 2 is kinda right though

0 reply
tman4000 72 Nov 28, 2006 06:37 PM

at the time......beginning is okay...the rest is hideous

guest
You may want to rate the tab now too:
select rating
Wanna post a correction for this tab? Suggest correction