Oops, an error
Loading. Please wait.

Sharp Dressed Man Tab

version 4
version 4

Whole song

Interactive

9,279 views 3 this week
4 commentsread comments
1 2 3 4 5
x 4
add to favorites
launch autoscroll
font size
0
reset
how to read this tab
guitar tuner
Autoscroll
slow
fast
+/-
esc
set tempo
stop
Help us to improve Ultimate-Guitar.com Take our survey!
×
Difficulty
novice
Key: v = vibrato
     >>> = slide 

Main Riff

E------------------|----------------------|
B------------------|-10-8-10--10-8--------|
G------------------|-10-8-10--10-8-10(v)--|
D------------------|----------------------|
A------------------|----------------------|
E------------------|-0--------------------|

E------------------|----------------------|
B------------------|----------------------|
G------------------|----------------------|
D------------------|----3>>>5-------------|
A------------------|-5--1>>>3-------------|
E------------------|-3--------------------|

Second Riff

E-----------------|---------------------|----------------------------|
B-----------------|---------------------|----------------------------|
G-----------------|---------------------|----------------------------|
D-----------------|----3>>>5-----3>>>5--|----5>>>3--0-3--------------|
A-----------------|-5--1>>>3--5--1>>>3--|-5--3>>>1--0-1-3------------|
E-----------------|-3---------3---------|-3-------------1------------|

E-----------------|---------------------|-----------------------------|
B-----------------|---------------------|-----------------------------|
G-----------------|---------------------|-----------------------------|
D-----------------|----3>>>5-----3>>>5--|----5>>>3--0-3---------------|
A-----------------|-5--1>>>3--5--1>>>3--|-5--3>>>1--0-1-3---3-5-555555|
E-----------------|-3---------3---------|-3-------------1-0-1-3-333333|

Hope this helps anyone this is my first tab.

Suggest correction
comments
print report bad tab
4 comments total. Showing first comments.
0 reply
80'smetaladdict 565 Sep 10, 2009 11:56 AM

not enough and errors

0 reply
linghoejohnson9 1,076 Oct 20, 2009 10:30 AM

............. the rating says enough

0 reply
Texasboy 256 Aug 10, 2014 04:22 AM

Lack of accuracy.

guest
You may want to rate the tab now too:
select rating
Wanna post a correction for this tab? Suggest correction