Oops, an error
Loading. Please wait.

Tube Snake Boogie Bass

version 1
version 1

Whole song

Interactive

by ZZ Top
1,397,870 views 12 this week
no commentswrite comment
1 2 3 4 5
x 3
add to favorites
launch autoscroll
font size
0
reset
guitar tuner
backing track
0:00
0:00
Autoscroll
slow
fast
+/-
esc
set tempo
stop
"TUBE SNAKE BOOGIE"
BY ZZ TOP
TABBED BY FRANKMAN

Drums and guitar start first

[Intro]

G|---------|---------|---------|---------|   
D|---------|---------|---------|---------|                  
A|-5-5-5-5-|-5-5-5-5-|-5-5-5-5-|-5-5-5-5-| x2     
E|---------|---------|---------|---------|           

G|---------|---------|---------|---------|
D|---------|---------|---------|---------|
A|---------|---------|---------|---------| x2
E|-0-0-0-0-|-0-0-0-0-|-0-0-0-0-|-0-0-0-0-|           

G|---------|---------|---------|---------|
D|---------|---------|---------|---------|
A|---------|---------|---------|---------|
E|-7-7-7-7-|-7-7-7-7-|-5-5-5-5-|-5-5-5-5-|

G|---------|---------|---------|---------|
D|---------|---------|---------|---------|
A|---------|---------|---------|---------|
E|-0-0-0-0-|-0-0-0-0-|-0-0-0-0-|-7-------|

[Verse]

G|---------|---------|---------|---------|
D|---------|---------|---------|---------|
A|---------|---------|---------|---------|
E|-0-0-0-0-|-0-0-0-0-|-0-0-0-0-|-0-0-0-0-|           

G|---------|---------|---------|---------|
D|---------|---------|-------4-|---5---6-|
A|---------|---------|---------|---------|
E|-0-0-0-0-|-0-0-0-0-|-0-0-2---|-3---4---|

G|---------|---------|---------|---------|
D|---------|---------|---------|---------|
A|---------|---------|---------|---------|
E|-5-5-5-5-|-5-5-5-5-|-5-5-5-5-|-5-5-5-5-|

G|---------|---------|---------|---------|
D|---------|---------|---------|---------|
A|---------|---------|---------|---------|
E|-0-0-0-0-|-0-0-0-0-|-0-0-0-0-|-0-0-0-0-|

G|---------|---------|---------|---------|
D|---------|---------|---------|---------|
A|---------|---------|---------|---------|
E|-7-7-7-7-|-7-7-7-7-|-5-5-5-5-|-5-5-5-5-|

G|---------|---------|---------|---------|
D|---------|---------|---------|---------|
A|---------|---------|---------|---------|
E|-0-0-0-0-|-0-0-0-0-|-0-0-0-0-|-7-------|

go back to the start of the verse and play it through the whole song.
Suggest correction
Give kudos to tab author, rate the tab!
1 2 3 4 5
comments
print report bad tab
guest
You may want to rate the tab now too:
select rating
Wanna post a correction for this tab? Suggest correction