Oops, an error
Loading. Please wait.

Tush Bass Tab

version 3
version 3

Whole song

Interactive

5,776 views 3 this week
no commentswrite comment
1 2 3 4 5
please rate
add to favorites
launch autoscroll
font size
0
reset
guitar tuner
Autoscroll
slow
fast
+/-
esc
set tempo
stop
Help us to improve Ultimate-Guitar.com Take our survey!
×
Author
Tush (ZZ Top)

Tabbed By : Todd Flynn
e-mail: flynnte88@yahoo.com

This tab is my own version of the song and is not intended to be balls-on to the 
original recording or any live versions.

Although they may be inaccurate, the beat marks aided me in laying this tab out, 
so they may help you as well.
Listen to the song for correct timing and note durations.

Tuning: Standard

Intro (0:04)
G|------------------------|------------------------|
D|------------------------|------------------------|
A|------------------------|------------------------|
E|3---3-3---3-3---3-3---0-|3---3-3---3-3---3-3---0-|
  ^  -  ^  -  ^  -  ^  -   ^  -  ^  -  ^  -  ^  -
G|------------------------|------------------------|
D|------------------------|------------------------|
A|------------------------|------------------------|
E|3---3-3---3-3---3-3---0-|3---3-3---3-3---0-1---0-|
  ^  -  ^  -  ^  -  ^  -   ^  -  ^  -  ^  -  ^  -

1st Verse (0:10)
G|------------------------|------------------------|
D|------------------------|------------------------|
A|------------------------|------------------------|
E|3---3-3---3-3---3-3---0-|3---3-3---3-3---3-3---0-|
  ^  -  ^  -  ^  -  ^  -   ^  -  ^  -  ^  -  ^  -
G|------------------------|------------------------|
D|------------------------|------------------------|
A|------------------------|------------------------|
E|3---3-3---3-3---3-3---0-|3---3-3---3-3---3-3---0-|
  ^  -  ^  -  ^  -  ^  -   ^  -  ^  -  ^  -  ^  -
G|------------------------|------------------------|
D|------------------------|------------------------|
A|3---3-3---3-3---3-3---0-|3---3-------------------|
E|------------------------|------0---0-1---1-2---2-|
  ^  -  ^  -  ^  -  ^  -   ^  -  ^  -  ^  -  ^  -
G|------------------------|------------------------|
D|------------------------|------------------------|
A|------------------------|------------------------|
E|3---3-3---3-3---3-3---0-|3---3-3---3-3---3-3---0-|
  ^  -  ^  -  ^  -  ^  -   ^  -  ^  -  ^  -  ^  -
G|------------------------|------------------------|
D|------------------------|------------------------|
A|5---5-5---5-5---5-5---0-|3---3-3---3-3---3-3---0-|
E|------------------------|------------------------|
  ^  -  ^  -  ^  -  ^  -   ^  -  ^  -  ^  -  ^  -
G|------------------------|------------------------|
D|------------------------|------------------------|
A|------------------------|------2H3/5-------------|
E|3---3-3---3-3---3-3---0-|3---3-----------------0-|
  ^  -  ^  -  ^  -  ^  -   ^  -  ^  -  ^  -  ^  -

2nd Verse (0:30)
(Repeat 1st verse)

Guitar Solo (0:50)
(Play 2X)
G|------------------------|------------------------|
D|------------------------|------------------------|
A|------------------------|------------------------|
E|3---3-3---3-3---3-3---0-|3---3-3---3-3---3-3---0-|
  ^  -  ^  -  ^  -  ^  -   ^  -  ^  -  ^  -  ^  -
G|------------------------|------------------------|
D|------------------------|------------------------|
A|------------------------|------0---0-1---1-2---2-|
E|3---3-3---3-3---3-3---0-|3---3-------------------|
  ^  -  ^  -  ^  -  ^  -   ^  -  ^  -  ^  -  ^  -
G|------------------------|------------------------|
D|------------------------|------------------------|
A|3---3-3---3-3---3-3---0-|3---3-------------------|
E|------------------------|------0---0-1---1-2---2-|
  ^  -  ^  -  ^  -  ^  -   ^  -  ^  -  ^  -  ^  -
G|------------------------|------------------------|
D|------------------------|------------------------|
A|------------------------|------------------------|
E|3---3-3---3-3---3-3---0-|3---3-3---3-3---3-3---0-|
  ^  -  ^  -  ^  -  ^  -   ^  -  ^  -  ^  -  ^  -
G|------------------------|------------------------|
D|------------------------|------------------------|
A|5---5-5---5-5---5-5---0-|3---3-3---3-3---3-3---0-|
E|------------------------|------------------------|
  ^  -  ^  -  ^  -  ^  -   ^  -  ^  -  ^  -  ^  -
G|------------------------|------------------------|
D|------------------------|------------------------|
A|------------------------|------2H3/5-------------|
E|3---3-3---3-3---3-3---0-|3---3-----------------0-|
  ^  -  ^  -  ^  -  ^  -   ^  -  ^  -  ^  -  ^  -

3rd Verse (1:30)
G|------------------------|------------------------|
D|------------------------|------------------------|
A|------------------------|------------------------|
E|3---3-3---3-3---3-3---0-|3---3-3---3-3---3-3---0-|
  ^  -  ^  -  ^  -  ^  -   ^  -  ^  -  ^  -  ^  -
G|------------------------|------------------------|
D|------------------------|------------------------|
A|------------------------|------------------------|
E|3---3-3---3-3---3-3---0-|3---3-3---3-3---3-3---0-|
  ^  -  ^  -  ^  -  ^  -   ^  -  ^  -  ^  -  ^  -
G|------------------------|------------------------|
D|------------------------|------------------------|
A|3---3-3---3-3---3-3---0-|3---3-------------------|
E|------------------------|------0---0-1---1-2---2-|
  ^  -  ^  -  ^  -  ^  -   ^  -  ^  -  ^  -  ^  -
G|------------------------|------------------------|
D|------------------------|------------------------|
A|------------------------|------------------------|
E|3---3-3---3-3---3-3---0-|3---3-3---3-3---3-3---0-|
  ^  -  ^  -  ^  -  ^  -   ^  -  ^  -  ^  -  ^  -
G|------------------------|------------------------|
D|------------------------|------------------------|
A|5---5-5---5-5---5-5---0-|3---3-3---3-3---3-3---0-|
E|------------------------|------------------------|
  ^  -  ^  -  ^  -  ^  -   ^  -  ^  -  ^  -  ^  -
G|------------------------|------------------------|
D|------------------------|------------------------|
A|------------------------|------------------------|
E|3---3-3---3-3---3-3---0-|3---------------------0-|
  ^  -  ^  -  ^  -  ^  -   ^  -  ^  -  ^  -  ^  -

Outro (1:50)
G|------------------------|------------------------|
D|------------------------|------------------------|
A|------------------------|------------------------|
E|3---3-3---3-3---3-3---0-|3---3-3---3-3---3-3---0-|
  ^  -  ^  -  ^  -  ^  -   ^  -  ^  -  ^  -  ^  -
G|------------------------|------------------------|
D|------------------------|------------------------|
A|------------------------|------0---0-1---1-2---2-|
E|3---3-3---3-3---3-3---0-|3---3-------------------|
  ^  -  ^  -  ^  -  ^  -   ^  -  ^  -  ^  -  ^  -
G|------------------------|------------------------|
D|------------------------|------------------------|
A|3---3-3---3-3---3-3---0-|3---3-------------------|
E|------------------------|------0---0-1---1-2---2-|
  ^  -  ^  -  ^  -  ^  -   ^  -  ^  -  ^  -  ^  -
G|------------------------|------------------------|
D|------------------------|------------------------|
A|------------------------|------------------------|
E|3---3-3---3-3---3-3---0-|3---3-3---3-3---3-3---0-|
  ^  -  ^  -  ^  -  ^  -   ^  -  ^  -  ^  -  ^  -
G|------------------------|------------------------|
D|------------------------|------------------------|
A|5---5-5---5-5---5-5---0-|3---3-3---3-3---3-3---0-|
E|------------------------|------------------------|
  ^  -  ^  -  ^  -  ^  -   ^  -  ^  -  ^  -  ^  -
G|------------------------|------------------------|
D|------------------------|------------------------|
A|------------------------|------------------------|
E|3---------------------4-|3-----------------------|
  ^  -  ^  -  ^  -  ^  -   ^  -  ^  -  ^  -  ^  -

H = Hammer On
/ = Slide Up
Suggest correction
Give kudos to tab author, rate the tab!
1 2 3 4 5
comments
print report bad tab
guest
You may want to rate the tab now too:
select rating
Please do not post tabs as comments. Select "correction" instead!