Oops, an error
Loading. Please wait.

Tush Tab

version 3
version 3

Interactive

Video

15,409 views 12 this week
4 commentsread comments
1 2 3 4 5
accurate
x 4
add to favorites
launch autoscroll
font size
0
reset
how to read this tab
guitar tuner
Tab Pro tools
  • play this tab
  • loop segment
  • change instrument
  • show fretboard
  • metronome
×
Best way to learn
"Tush"
Autoscroll
slow
fast
+/-
esc
set tempo
stop
Difficulty
intermediate
-----------------------------------
          zz top's tush
-----------------------------------
                                                (I admit it. It's a good 
                                                 tab, but not the best. It's
                                                 still usable though.)

e|-------------------------------------|
B|-------------------------------------|
G|----------5---5-3------5---5-3-------|
D|----------5---5-3------5---5-3-------|        play twice
A|-------------------------------------|
E|---1/3-3-----3------3----3-----------|


e|-------------------------------------|
B|-------------------------------------|
G|----------5---5-3-------5--5-3-------|
D|----------5---5-3-------5--5-3-------|        play twice
A|-------------------------------------|
E|---1/3-3----------1/3-3--------------|


e|--------------------------------------------------|
B|--------------------------------------------------|
G|--------------------------------------------------|
D|--------------------------------------------------|
A|--10-10-12-12-13-13-12-12-10-10-12-12-13-13-13-13-|
E|--8--8--8--8--8--8--8--8--8--8--8--8--8--8--8--8--|


e|-------------------------------------|
B|-------------------------------------|
G|-------5------5-3------5-----5-3-----|
D|-------5------5-3------5-----5-3-----|
A|-------------------------------------|
E|--3-3-----3--------3------3----------|


e|-------------------------------------|
B|-------------------------------------|
G|--2-2-4-4-5-5-4-4--------------------|
D|--0-0-0-0-0-0-0-0--------------------|
A|-------------------------------------|
E|-------------------------------------|


e|-------------------------------------|
B|-------------------------------------|
G|-------------------------------------|
D|--5-5-7-7-8-8-7-7-5-5-7-7-8-8-8-8----|      This is for long fingers.
A|--3-3-3-3-3-3-3-3-3-3-3-3-3-3-3-3----|      This is easier to reach to.
E|-------------------------------------|      You will no what I mean.
                  or  

e|-------------------------------------|
B|-------------------------------------|
G|-------------------------------------|
D|-------------------------------------|      This is for shorter fingers.
A|--10-10-12-12-13-13-12-12------------| (Cuation)THis is harder to get to.
E|--8--8--8--8--8--8--8--8-------------|


e|-------------------------------------|
B|-------------------------------------|
G|-------5-----5-3-----5-----5-3-------|
D|-------5-----5-3-----5-----5-3-------|
A|-------------------------------------|
E|--3-3-----3-------3-----3------------|


Then it gets into the solo or something.

I'm sorry. This is all I know. Please enjoy all that I have given to you.

(Hint) Tabs are easier to make than you think. It just takes a while to make one.
comments
print report bad tab
4 comments total. Showing first comments.
+1 reply
zzfan wrote on December 16 2007, 05:30 pm

hey it's me the creator of this tab. i messed up at the very first. the first line of tabs says "play twice". it is
supposed to be played 4 times see ya:)

+1 reply
zzfan wrote on December 16 2007, 06:06 pm

creator of this tab again. on the long finger stretch, you only play until the second set of power chords (3 and 5 are
last power chords)

+1 reply
zzfan wrote on December 17 2007, 09:18 pm

it's me zzfan. this is my tab. i put it on here before i registered.

I want to post or [tab]
guest
You may want to rate the tab now too:
select rating
Please do not post tabs as comments. Select "correction" instead!