Oops, an error
Loading. Please wait.

Tush Tab

version 4
version 4

Whole song

Interactive

Video

7,838 views 6 this week
1 commentread comment
1 2 3 4 5
please rate
add to favorites
launch autoscroll
font size
0
reset
how to read this tab
guitar tuner
Autoscroll
slow
fast
+/-
esc
set tempo
stop
Help us to improve Ultimate-Guitar.com Take our survey!
×
Author
Difficulty
intermediate
                                         ZZ TOP 
                                          TUSH
Key:
/ :slide up
. :palm mute
h : hammer on
p : pull of
~ : bend back and fourth
Into                      Yeah!  Riff 1                 2x
|-------------------------| |-----------------------------|
|-------------------------| |-----------------------------|
|-----5---5-3---5---5-3---| |-----5---5-3---5---5-3-------|
|-----5---5-3---5---5-3---| |-----5---5-3---5---5-3-------|
|-------------------------| |-----------------------------|
|-3-3---3-----3---3-----1/| |-3-3---3-----3---3------3-1/-|
                              . .   .     .   .      

 Verse 1
|--------------------------| |------------------------|
|--------------------------| |------------------------|
|-----5---5-3------5---5-3-| |----5---5-3-----5---5-3-|
|-----5---5-3------5---5-3-| |----5---5-3-----5---5-3-|
|--------------------------| |------------------------|
|-3-3---3-----1/-3---3-----| |-3~---3-----3-3---3-----|
  . .   .        .   .              .     . .   .    


On this part I palm mute the 5th string.
Riff 2
|-----------------------------------|
|-----------------------------------|
|-----------------------------------|
|-5---7---8---7---5-----------------|
|-3-3-3-3-3-3-3-3-3-----------------|
|-------------------0-0-0-1-1-2-2-2-|
  . . . . . . . . .
Verse 2
|-----------------------|
|-----------------------|
|-----5---5-3---5---5-3-|
|-----5---5-3---5---5-3-|
|-----------------------|
|-3-3---3-----3---3-----|
  . .   .     .   .
Riff 3
|---------------------------------------------------| |-------|
|---------------------------------------------------| |-------|
|---------------------------------------------------| |-------|
|-7---9--10---9----5---7---8---7--------------------| |-5-6-7-|
|-5-5-5-5-5-5-5-5--3-3-3-3-3-3-3-3--5---7---8---7---| |-3-4-5-|
|-----------------------------------3-3-3-3-3-3-3-3-| |-------|
  . . . . . . . .  . . . . . . . .  . . . . . . . .

repeat verse 1.                
then  riff 2
then verse 2
then riff 3

         thats all I know sorry if you are looking for the solo.
                                 Enjoy!
Suggest correction
What's this?
You can suggest a correction to this tab. Community and Mods will review your correction and vote to approve or reject it.
comments
We did not receive enough feedback on this tab! Please rate:
print report bad tab
1 2 3 4 5
1 comment total.
0 reply
Guitar Xpert 10 wrote on June 6 2008, 10:27 pm

Nice tab man. ZZ Top is awsome!!!!!!!

guest
You may want to rate the tab now too:
select rating
Please do not post tabs as comments. Select "correction" instead!