Oops, an error
Loading. Please wait.

Waitin For The Bus Bass

version 1
version 1

Whole song

Interactive

by ZZ Top
10,709 views 9 this week
1 commentread comment
1 2 3 4 5
x 3
add to favorites
launch autoscroll
font size
0
reset
guitar tuner
Autoscroll
slow
fast
+/-
esc
set tempo
stop
Author
-------------------------------------------------------------------------------
			     Waitin' for the Bus - ZZ Top
-------------------------------------------------------------------------------

Tabbed By : Corey

Tuning:EADG

   (0:08)  
G|--------------|------------------------------------------------------------------|
D|--------------|------------------------------------------------------------------|
A|--------------|0--0--0-0--0--0--0-0--0--0--0-0--0--0--0-0--0--0--0-0--0--0--0-0--|
E|-0~--1-3-1-30-|-------5----------5----------5----------5----------5----------5---|

G|--------------------------------------------------------------------|
D|-----------------------------------------------------4-4-74---------|2X 
A|-5--5--5-5--5--5--5-5--0--0--0-0--0--0--0-0--7-7-7-7-------75-------|
E|--------5----------5----------5----------5--------------------------|

G|----------|----------------|
D|----------|----------------|12x
A|-0~-5-7-7-|--------------3-|
E|----------|--5-3-5-3-5553--|

G|-----------------|
D|-----------------|8x
A|--------------1--|
E|--3-1-3-1-3331---|

G|-----------------|  |---------------------| 
D|--------------5--|3x|---------74----------|
A|--7-5-7-5-7775---|  |-7-5-7-5---75--5~----|
E|-----------------|  |---------------------|
   
G|--------------|------------------------------------------------------------------|
D|--------------|------------------------------------------------------------------|
A|--------------|0--0--0-0--0--0--0-0--0--0--0-0--0--0--0-0--0--0--0-0--0--0--0-0--|
E|-0~--1-3-1-30-|-------5----------5----------5----------5----------5----------5---|

G|--------------------------------------------------------------------------|
D|-----------------------------------------------------4-4-74---------------|
A|-5--5--5-5--5--5--5-5--0--0--0-0--0--0--0-0--7-7-7-7-------75--0--0--0-0--|
E|--------5----------5----------5----------5----------------------------5---|


G|---------------|
D|------74-------|
A|-0--0---75~----|
E|---------------|



~ hold note

===============================================================================
Suggest correction
Give kudos to tab author, rate the tab!
1 2 3 4 5
comments
print report bad tab
1 comment total.
0 reply
tom.hinton64 10 Oct 06, 2014 08:30 AM

Clearly wrong. Wrong on the opening notes, confusing format, this is such an easy song it surprised me to see it done so badly.

guest
You may want to rate the tab now too:
select rating
Wanna post a correction for this tab? Suggest correction