Oops, an error
Loading. Please wait.

Waitin For The Bus Tab

version 2
version 2

Whole song

Interactive

10,254 views 24 this week
no commentswrite comment
1 2 3 4 5
worth learning
x 2
add to favorites
launch autoscroll
font size
0
reset
how to read this tab
guitar tuner
Tab Pro tools
  • play this tab
  • loop segment
  • change instrument
  • show fretboard
  • metronome
×
Best way to learn
"Waitin For The Bus"
Autoscroll
slow
fast
+/-
esc
set tempo
stop
Contributor
off the album "Tres Hombres"
intro/verse
  intro x4/verse x6     x2
e|-----------------|---------------1-|--------------------------------------------|
B|-----------------|-3-1-3-1-3-3-0---|--------------------------------------------|
G|-2-0-2-0-2-2-0-5-|-----------------|--------------------------------------------|
D|-----------------|-----------------|--------------------------------------------|
A|-----------------|-----------------|--------------------------------------------|
E|-----------------|-----------------|--------------------------------------------|
 pm-------------------------------------------------------------------------------|
 Refrain
e|------------------------------------------------------------------------------|
B|------------------1-----------------------------------------------------------|
G|---------3--------2-----------------------------------------------------------|
D|----------------0----2p0------------------------------------------------------|
A|-------2------0----------0----0-----------------------------------------------|
E|-0-2/4------2--------------3^-------------------------------------------------|
             D7/F#
Back to verse
refrain
pre solo
e|-----x------------------------------------------------------------------------|
B|---7-x-9----------------------------------------------------------------------|
G|---7-x-9----------------------------------------------------------------------|
D|---7-x-9----------------------------------------------------------------------|
A|---5-x-7----------------------------------------------------------------------|
E|-----x------------------------------------------------------------------------|
     D   E
 just strum an A for the solo rythem
e|------------------------------------------------------------------------------|
B|----2-------------------------------------------------------------------------|
G|----2-------------------------------------------------------------------------|
D|----2-------------------------------------------------------------------------|
A|------------------------------------------------------------------------------|
E|------------------------------------------------------------------------------|
      A
Don't know the solo, but hes in the key of A and penatonic/blues scale sounds good 
just play around with it
e|----------------------------5-8-5---------------------------------------------|
B|------------------------5-8-------8-5-----------------------------------------|
G|------------------5-7-8---------------8-7-5-----------------------------------|
D|--------------5-7---------------------------7-5-------------------------------|
A|--------5-6-7-----------------------------------7-6-5-------------------------|
E|----5-8-----------------------------------------------8-5---------------------|
      A blues
then for a section of the solo it changes up a fret to A# blues
then the intro
verse
refrain

Thats pretty much it, then it leads on into Jesus Just Left Chicago

| ^  bend
| pm palm mute
| /  slide up
| \  slide down
| h  hammer-on
| p  pull-off
| ~  vibrato
| +  harmonic
| x  Mute note

Lyrics

Have mercy, been waitin' for the bus all day.
Have mercy, been waitin' for the bus all day.
I got my brown paper bag and my take-home pay.

Have mercy, old bus be packed up tight.
Have mercy, old bus be packed up tight.
Well, I'm glad just to get on and home tonight.

Right on, that bus done got me back.
Right on, that bus done got me back.
Well, I'll be ridin' on the bus till I Cadillac.
===============================================================================
comments
We did not receive enough feedback on this tab! Please rate:
print report bad tab
1 2 3 4 5
I want to post or [tab]
guest
You may want to rate the tab now too:
select rating
Please do not post tabs as comments. Select "correction" instead!