Oops, an error
Loading. Please wait.

Put The Gun Down bass

by ZZ Ward
717 views 3 this week
no commentswrite comment
1 2 3 4 5
3 more votes to show rating
add to favorites
×
Save as Personal and add changes to this tab that will be seen only by you. Learn more ›
×
You can save this tab as Personal to edit and correct it or add notes. All changes will be seen only by you. Learn more »
launch autoscroll
font size
0
reset
guitar tuner
edit
Autoscroll
slow
fast
+/-
esc
set tempo
stop
Put The Gun Down
by ZZ Ward

Intro         Verse I

|------------||------------|--------------|
|------------||------------|--------------|
|------------||------------|--------------|
|------------||------------|------5s=12\--|

  Em    G           D         Am      C                 D
|-----------------|-----------------|-----------------|--------------------||
|-----------------|-----------------|-----------------|--------------------||
|-7-7-7s5---------|-5-5-5s7---------|---------------7p|=5-5-5-5-5--(5)s19\-||
|---------3-3-3h5-|---------5-5-5h7-|-8-8-8-8-8-8-8---|--------------------||

Chorus I

  Em           Bm          D         Am
|------------------------|-------------------|
|------------------------|---------7---------|
|-7-7-7-7-(7)\-2-2-2-2-2s|=5-5-5-5-------5-6-|
|------------------------|-----------5-8-----|

  Em           Bm          D           Am
|------------------------|-----------------------|
|------------------------|-----------------------|
|-7-7-7-7-(7)\-2-2-2-2-2s|=5-5-5-5-----------5---|
|------------------------|---------7-0-5-4-3-----|

   Em           Bm             D         Am
|----------------------------|-------------------|
|----------------------------|---------7---------|
|-(5)s7-7-7-7-(7)\-2-2-2-2-2s|=5-5-5-5-------5-6-|
|----------------------------|-----------5-8-----|

  Em           Bm          D
|------------------------|---------------------|
|------------------------|---------------------|
|-7-7-7-7-(7)\-2-2-2-2-2s|=5-5-5-5-5-5-5-5-5---|
|------------------------|---------------------|

  Em           Bm          D         Am
|--------------------4---|-------------------|
|------------------------|---------7---------|
|-7-7-7-7-(7)\-2-2-2---2s|=5-5-5-5-------5-6-|
|------------------------|-----------5-8-----|

  Em           Bm          D         Am
|------------------------|------------------||
|------------------------|---------7--------||
|-7-7-7-7-(7)\-2-2-2-2-2s|=5-5-5-5----------||
|------------------------|-----------5-5-5--||

Verse II
  Em        G       D       Am        Em        G       D       Am
|-----------------|-----------------|-----------------|-----------------------|
|-----------------|-----------------|-----------------|-------------5h7-(7)\--|
|-7-7-7s5---------|-5-5-5s7---------|-7-7-7s5---------|-5-5-5s7---7-----------|
|---------3-3-3h5-|---------5-5-5h7-|---------3-3-3h5-|---------5-------------|

  Em        G       D              Am
|-----------------|-------7h9-(9)\----------|
|-----------------|-------------------------|
|-7-7-7s5---------|-5-5s9-------------------|
|---------3-3-3h5-|-----------------5-5-5h7-|

  C                   D
|-------------------|---------7-------------||
|---------5-5-7p5---|-----------------------||
|-------7---------7-|-5-5-5-5---5-(5)s19\---||
|-8-8-8-------------|-----------------------||

Chorus II
  Em           Bm          D         Am
|------------------------|-------------------|
|------------------------|---------7---------|
|-7-7-7-7-(7)\-2-2-2-2-2s|=5-5-5-5-------5-6-|
|------------------------|-----------5-8-----|

  Em           Bm          D           Am
|------------------------|-----------------------|
|------------------------|-----------------------|
|-7-7-7-7-(7)\-2-2-2-2-2s|=5-5-5-5-----------5---|
|------------------------|---------7-0-5-4-3-----|

      Em           Bm          D         Am
|----------------------------|-------------------|
|----------------------------|---------7---------|
|-(5)s7-7-7-7-(7)\-2-2-2-2-2s|=5-5-5-5-------5-6-|
|----------------------------|-----------5-8-----|

  Em           Bm          D
|------------------------|--------------------|
|------------------------|--------------------|
|-7-7-7-7-(7)\-2-2-2-2-2s|=5-5-5-5-5-5--------|
|------------------------|--------------------|

  Em           Bm          D         Am
|--------------------4---|-----------------------|
|------------------------|---------7-----7s9-7s5-|
|-7-7-7-7-(7)\-2-2-2---2s|=5-5-5-5---------------|
|------------------------|-----------5-5---------|

  Em           Bm          D         Am
|------------------------|-------------------||
|------------------------|---------7---------||
|-7-7-7-7-(7)\-2-2-2-2-2s|=5-5-5-5-----------||
|------------------------|-----------5-5-5---||

Breakdown
  Em                        G              D              Am
|----------12h13----------|--------------|--------------|------------------|
|----------------14-(14)\-|--------------|--------------|------------------|
|-7\----------------------|-10\----------|--------------|------------------|
|-------------------------|--------------|-10\----------|-5-5-5-5-5-5-5-5--|

  Em                        G
|-------------------------|-------------------------------------|
|-------------------------|-----------------7h9p7p0-------------|
|-7---7---7---7p5p0-------|-----------5h7s9---------9p7p0-7p5p0-|
|---7---7---7-------7p5p0-|-3---3h5s7---------------------------|

  D                       Am
|-----------------------|---------7p0-5h7-(7)-5-----------|
|---------------------7-|-----------------------7-5-------|
|-5-5-5-5-5-5-5-5-5-5---|---------------------------7-5p0-|
|-----------------------|-5-5-5-5-------------------------|

  Em           Bm          D         Am
|--------------------4---|-------------------|
|------------------------|---------7---------|
|-7-7-7-7-(7)\-2-2-2---2s|=5-5-5-5-------5-6-|
|------------------------|-----------5-8-----|

  Em           Bm          D         Am
|------------------------|-----------------------------------||
|------------------------|---------7---------5h7p5p0---------||
|-7-7-7-7-(7)\-2-2-2-2-2s|=5-5-5-5-------5h7---------7p5p0---||
|------------------------|-----------5h7---------------------||

Chorus III
  Em           Bm          D         Am
|------------------------|-------------------|
|------------------------|---------7---------|
|-7-7-7-7-(7)\-2-2-2-2-2s|=5-5-5-5-------5-6-|
|------------------------|-----------5-8-----|

  Em           Bm          D          Am
|------------------------|----7s9-7p0-9-7p0--------------|
|------------------------|------------------9p7p0-7p5p0--|
|-7-7-7-7-(7)\-2-2-2-2-2s|=5-----------------------------|
|------------------------|-------------------------------|

  Em           Bm          D         Am
|------------------------|-------------------|
|------------------------|---------7---------|
|-7-7-7-7-(7)\-2-2-2-2-2s|=5-5-5-5-------5-6-|
|------------------------|-----------5-8-----|

  Em           Bm          D
|------------------------|-------7-------7---|
|------------------------|-----------7-------|
|-7-7-7-7-(7)\-2-2-2-2-2s|=5-5-5---5---5---5-|
|------------------------|-------------------|

  Em           Bm          D         Am
|--------------------4---|------------------12h14--|
|------------------------|---------7---------------|
|-7-7-7-7-(7)\-2-2-2---2s|=5-5-5-5-----7s14--------|
|------------------------|-----------5-------------|

     Em              Bm          D           Am
|-12h14p12---------------------|------------------------||
|----------14-(14)\------------|------------------------||
|--------------------2-2-2-2-2s|=5-5-5-5-----------5s===||
|------------------------------|---------7-0-5-4-3------||

Outro
  Em           Bm          D         Am
|--------------------4---|-------------------|
|------------------------|---------7---------|
|-7-7-7-7-(7)\-2-2-2---2s|=5-5-5-5-------5-6-|
|------------------------|-----------5-8-----|

  Em            Bm               D         Am
|-----7s9-7--------------------|-------------------------|------*|
|---5-------9-7----------------|---------7---------------|------*|
|-7-------------9-7------------|-5-5-5-5-------------5h7-|------*|
|-------------------10-7p0-5h7-|-----------5-5-5-5h8-----|-5----*|

            
            
Suggest correction
Creating personal tab
Creating personal tab
You can edit any tab online and save it as your Personal.

You can edit, replace or remove any tab part or add personal notes – all changes will be seen only by you.

Personal tabs can be accessed anytime from any device, even offline.
Learn more »
Give kudos to tab author, rate the tab!
1 2 3 4 5
comments
print report bad tab
guest
You may want to rate the tab now too:
select rating
Wanna post a correction for this tab? Suggest correction