Oops, an error
Loading. Please wait.

Layla Chords

version 4
version 4
7,087 views 1,686 this week
1 commentread comment
1 2 3 4 5
x 5
add to favorites
launch autoscroll
font size
0
reset
transpose
0
reset
simplify chords
display chords
guitar tuner
backing track
0:00
0:00
×
Best way to learn
"Layla"
Autoscroll
slow
fast
+/-
esc
set tempo
stop
Author
Difficulty
intermediate
[Intro]
e|--------------------------------------------------1-------------------------------------------|
B|--------------------------------------------—-----3-----------------------2-------------------|
G|--------2----------------3--3------5--2--------2--2----------3--3------5--0-------------------|
D|--------0-----0-----3----3--3------5--0--------0---------3---3--3------5------------0---------|
A|--0--3-----------3--1----1--1--3---3------0--3--------3--1---1--1------3------0--3------------|
E|----------------------------------------------------------------------------------------------|


[Intro solo]
e|----------------------------------------------------------------8--10--12--|
B|----------5-6--5h6p5---5-6-5---5-6--6/8--6-8—8/10--8--10/13--10------------|
G|------5-7------------7-------7---------------------------------------------|
D|----7----------------------------------------------------------------------|
A|---------------------------------------------------------------------------|
E|---------------------------------------------------------------------------|

e|----10h12p10--8-10-8-------------------------------------------------------|
B|---------------------10p8--10--8\6—6h8p6-----------------------------------|
G|------------------------------------------9-10—-9\7--7---------------------|
D|---------------------------------------------------------------------------|
A|---------------------------------------------------------------------------|
E|---------------------------------------------------------------------------|

e|---------------------------------------------------------------------------|
B|----------5-6--------------------------------------------------------------|
G|------5-7------7p5--7------------------------------------------------------|
D|----7-----------------\5---------5--\5--3-5--------------------------------|
A|--------------------------8p4--8-----------------0-3-----------------------|
E|---------------------------------------------------------------------------|   


[Verse]
C#m7                         Ab7
 What'll you do when you get lonely
C#m7   C       D       E     E7
No one waiting by your side?
F#m          B           E               A
You've been running and hiding much too long.
F#m            B                 E
You know it's just your foolish pride.


[Chorus]
A     Dm   Bb
Layla, 
C                  Dm           Dm  Bb
you've got me on my knees, Layla.
    C                Dm            Dm  Bb
I'm begging, darling please, Layla.
C                Dm                   Dm  Bb  C  A/C
darling wont you ease my worried mind.


[Verse]
C#m7                      Ab7
I tried to give you consolation
C#m7           C       D       E    E7
When your old man had let you down.
F#m    B       E                 A
Like a fool, I fell in love with you,
F#m       B                  E
Turned my whole world upside down.


[Chorus]
     C#m7                      Ab7
Lets make the best of the situation
C#m7     C       D    E     E7
Before I finally go insane.
F#m          B        E            A
Please don't say well never find a way
  F#m       B                E
And tell me all my loves in vain.
     C#m7                      Ab7
Lets make the best of the situation
C#m7     C       D    E     E7
Before I finally go insane.
F#m          B        E            A
Please don't say well never find a way
  F#m       B                E
And tell me all my loves in vain.
     C#m7                      Ab7
Lets make the best of the situation
C#m7     C       D    E     E7
Before I finally go insane.
F#m          B        E            A
Please don't say well never find a way
  F#m       B                E
And tell me all my loves in vain.

***********************************
| /   Slide up
| \   Slide down
| h   Hummer-on
| p   Pull-off
***********************************
Suggest correction
comments
print report bad tab
1 comment total.
0 reply
Chaplained 10 Mar 29, 2017 09:30 PM

👍

guest
You may want to rate the tab now too:
select rating
Wanna post a correction for this tab? Suggest correction