Oops, an error
Loading. Please wait.

Hurt Tab

version 1
1,462,472 views 2,523 this week
58 commentsread comments
1 2 3 4 5
accurate
x 118
add to favorites
launch autoscroll
font size
0
reset
how to read this tab
guitar tuner
Autoscroll
slow
fast
+/-
esc
set tempo
stop
Help us to improve Ultimate-Guitar.com Take our survey!
×
[Intro]

     Am        C           D
e|------0--------0---------2------|
B|------1--------1---------3------|
G|------2--------0-------2-2------|
D|----2-2------2-2------0--0------|
A|---0--0------3-3----------------|
E|--------------------------------|


[Verse 1]

     Am        C           D
e|------0--------0---------2------|
B|------1--------1---------3------|
G|------2--------0-------2-2------|
D|----2-2------2-2------0--0------|
A|---0--0------3-3----------------|
E|--------------------------------|

I hurt myself today
to see if I still feel
I focus on the pain
the only thing that's real
the needle tears a hole
the old familiar sting
try to kill it all away
but I remember everything

[Chorus]

    G  A7sus4 F    C
e|--3----3----1----3----|
B|--3----3----1----1----|
G|--0----2----2----0----|
D|--0----2----3----2----|
A|--2----0----3----3----|
E|--3----0----1----0----|

what have I become?
my sweetest friend
everyone I know
goes away in the end
you could have it all
my empire of dirt
I will let you down
I will make you hurt

[Verse 2]

     Am        C           D
e|------0--------0---------2------|
B|------1--------1---------3------|
G|------2--------0-------2-2------|
D|----2-2------2-2------0--0------|
A|---0--0------3-3----------------|
E|--------------------------------|

I wear my crown of shit
on my liar's chair
full of broken thoughts
I cannot repair
beneath the stain of time
the feeling disappears
you are someone else
I am still right here

[Chorus]

    G  A7sus4 F    C
e|--3----3----1----3----|
B|--3----3----1----1----|
G|--0----2----2----0----|
D|--0----2----3----2----|
A|--2----0----3----3----|
E|--3----0----1----0----|

what have I become?
my sweetest friend
everyone I know
goes away in the end
you could have it all
my empire of dirt
I will let you down
I will make you hurt

[Bridge]

    G  A7sus4 F    C
e|--3----3----1----3----|
B|--3----3----1----1----|
G|--0----2----2----0----|
D|--0----2----3----2----|
A|--2----0----3----3----|
E|--3----0----1----0----|

if I could start again
a million miles away
I would keep myself
I would find a way
comments
print report bad tab
58 comments total. Showing first comments.
+3 reply
Captain_Mega 14 wrote on May 8 2003, 12:00 am

great tab. looks real good, and sounds good

+3 reply
ExperienceJH 16 wrote on September 13 2003, 12:00 am

nice tab. one of the first almost-there ones in a while.

+6 reply
corgan_06 155 wrote on September 20 2003, 12:00 am

Ni ce tab. RIP Man in Black.

I want to post or [tab]
guest
You may want to rate the tab now too:
select rating
Please do not post tabs as comments. Select "correction" instead!