Oops, an error
Loading. Please wait.
We have an official Hurt tab made by UG professional guitarists. Check out the tab »
×
1,806,809 views 5,115 this week
59 commentsread comments
1 2 3 4 5
x 190
add to favorites
×
Save as Personal and add changes to this tab that will be seen only by you. Learn more ›
×
You can save this tab as Personal to edit and correct it or add notes. All changes will be seen only by you. Learn more »
save as personal
new!
launch autoscroll
font size
0
reset
how to read this tab
guitar tuner
Autoscroll
slow
fast
+/-
esc
set tempo
stop
Difficulty
Key
intermediate
Am
[Intro]

     Am        C           D
e|------0--------0---------2------|
B|------1--------1---------3------|
G|------2--------0-------2-2------|
D|----2-2------2-2------0--0------|
A|---0--0------3-3----------------|
E|--------------------------------|


[Verse 1]

      Am        C           D
e|------0--------0---------2------|
B|------1--------1---------3------|
G|------2--------0-------2-2------|
D|----2-2------2-2------0--0------|
A|---0--0-----3--3----------------|
E|--------------------------------|

I hurt myself today
to see if I still feel
I focus on the pain
the only thing that's real
the needle tears a hole
the old familiar sting
try to kill it all away
but I remember everything

[Chorus]

    G  A7sus4 F   C
e|--3----3----3----3----|
B|--3----1----1----1----|
G|--0----2----2----0----|
D|--0----2----3----2----|
A|--2----0----0----3----|
E|--3--------------0----|

what have I become?
my sweetest friend
everyone I know
goes away in the end
you could have it all
my empire of dirt
I will let you down
I will make you hurt

[Verse 2]

     Am        C         D
e|------0--------0---------2------|
B|------1--------1---------3------|
G|------2--------0-------2-2------|
D|----2-2------2-2------0--0------|
A|---0--0-----3--3----------------|
E|--------------------------------|

I wear my crown of thorns
on my liar's chair
full of broken thoughts
I cannot repair
beneath the stain of time
the feeling disappears
you are someone else
I am still right here

[Chorus]

    G  A7sus4 F    C
e|--3----3----3----3----|
B|--3----1----1----1----|
G|--0----2----2----0----|
D|--0----2----3----2----|
A|--2----0----0----3----|
E|--3--------------0----|

what have I become?
my sweetest friend
everyone I know
goes away in the end
you could have it all
my empire of dirt
I will let you down
I will make you hurt

[Bridge]

    G  A7sus4 F    C
e|--3----3----3----3----|
B|--3----1----1----1----|
G|--0----2----2----0----|
D|--0----2----3----2----|
A|--2----0----0----3----|
E|--3--------------0----|

if I could start again
a million miles away
I would keep myself
I would find a way
Suggest correction
comments
print report bad tab
59 comments total. Showing first comments.
+4 reply
Captain_Mega 10 May 07, 2003 08:00 PM

great tab. looks real good, and sounds good

+3 reply
ExperienceJH 10 Sep 12, 2003 08:00 PM

nice tab. one of the first almost-there ones in a while.

+6 reply
corgan_06 60 Sep 19, 2003 08:00 PM

Ni ce tab. RIP Man in Black.

guest
Wanna post a correction for this tab? Suggest correction