Oops, an error
Loading. Please wait.

Bohemian Rhapsody Tab

version 1
739,084 views 2,467 this week
5 commentsread comments
1 2 3 4 5
accurate
x 28
add to favorites
launch autoscroll
font size
0
reset
how to read this tab
guitar tuner
Autoscroll
slow
fast
+/-
esc
set tempo
stop
Help us to improve Ultimate-Guitar.com Take our survey!
×
Queen: Bohemian Rhapsody
Freddie Mercury /1975/

2'25" two gtrs arr. for one
e|------------|----------------------------------|----|
B|------------|----------------------------------|----|
G|------------|-8-------5----10------------------|-0/-|
D|------------|-8-------5----10-------------8----|-/0-|
A|------------|-6----5--3-----8----7-6--5---8----|----|
E|-5----4--3--|-----------------------------6----|----|

e|----------------------------------------------------------------------|
B|----------------------------------------------------------------------|
G|-8--------------------5--------------------------6-----------------2--|
D|-8--------------------5--------------------------6-----6-5-4---3---2--|
A|-6----5---3vv---------3----3-1-----8----7-6--5---4-----4-3-2---1---0--|
E|--------------4-3-2-3----------3-1------------------------------------|


[Solo]

e|-------------------------------------------------------------------------|
B|------------------11v---8---11b13vv------13v---15-16-13v---15-16-b18v----|
G|-----10b12__r10p8---------------------(xx)-------------------------------|
D|-8-----------------------------------------------------------------------|
A|-------------------------------------------------------------------------|
E|-------------------------------------------------------------------------|
                                                     ------                     -----
e|----------------15--16--18--b20v-----18--16--15-16-15h16p15----15---------------------------------------|
B|------------18----------------------------------------------18----18-16-15-16-15h16p15----15------------|
G|--------17-----------------------------------------------------------------------------17----17-15-15vv-|
D|---x-17-------------------------------------------------------------------------------------------------|
A|--------------------------------------------------------------------------------------------------------|
E|--------------------------------------------------------------------------------------------------------|

e|------------------15-16-18-------------------15-16-18--b20v--|
B|---------15-16-18-------------------15-16-18-----------------|
G|--15--17----------------------15-17--------------------------|
D|-------------------------------------------------------------|
A|-------------------------------------------------------------|
E|-------------------------------------------------------------|

e|------------------------------------------------------13------------9-9-9__\2------------|
B|-15-16-13v---15-16-13v---15-16-b18vv-----------------------------------------2---h3p2p0--|
G|----------------------------------------10-12-b13v----------b13v-----------------------2-|
D|-----------------------------------------------------------------------------------------|
A|-----------------------------------------------------------------------------------------|
E|-----------------------------------------------------------------------------------------|

4'7" two gtrs arr. for one
e|-----|------------------------------------------------------------------------------------------|
B|-----|------------------------------------------------------------------------------------------|
G|-----|------------------------------------------------------------------------------------------|
D|-8---|------------------------------------------------------------------------------------------|
A|-8---|-6---------------3-5-6---6-------------3-------6---------------3-5-6---8-------------5----|
E|-6---|-----3---4---6---------------3---4---6---6---------3---4---6---------------5---6---8---8--|

e|-----------------------------------------------------------------------------------------|
B|-----------------------------------------------------------------------------------------|
G|-------8--8----------------------6v-------------8--8--8------------------3---------------|
D|-8-----8--8--8---8---6-8-6------------8----8----8--8--8--6---------------3---3h5--3------|
A|-8-----6--6--8-------------8----------8----8----6--6--6--6---------------1-----------5-3-|
E|-6-----6--6--6---------------9--------6----6-------------4----4--3--1--------------------|

e|-------------------------------------------|
B|-------------------------------------------|
G|------3-----------------------3---------3--|
D|------3--------3-5p3----------3---------3--|
A|------1----4h5-------5p3------1---------1--|
E|-1-----------------------1---------1-------|

e|----------------------------------------------------------------------------------------------|
B|----------------------------------------------------------------------------------------------|
G|----------------------------------------------------------------------------------------------|
D|----------------------------------------------------------------------------------------------|
A|-6---------------3-5-6---6-------------3-------6---------------3-5-6---8---------------5-7-8--|
E|-----3---4---6---------------3---4---6---6---------3---4---6---------------5---6---8----------|

e|----------------------------------------|
B|----------------------------------------|
G|----------------------------------------|
D|-5-7-8---7-8-10---8-10-11---------------|
A|----------------------------------------|
E|---------------------------7----4----6--|

4'51" middle             right                     left
e|-----------------------|-------------------------|-----------------------------------|
B|-----------------------|-------------------------|-----------------------------------|
G|-------------6---6-8-9-|-------------------------|-----------------------------------|
D|-------6-7-9---9-------|-------------------6-8-8-|------------------------------8----|
A|-6-7-9-----------------|---------6-8-9-8-9-------|-----------------8----8-10-11-8----|
E|-----------------------|-8-6-8-9-----------------|-10-8-10-8-10-11---11---------6----|

left         right       left
e|-------3-6-|---------6-|----------------|
B|-x---4-----|-------6---|--------8-b13v--|
G|---3-------|-7---7-----|-8----8---------|
D|-----------|---8-------|---10-----------|
A|-6---------|-5---------|-4--------------| <- two gtrs arr for one
E|-----------|-----------|----------------|

three gtrs arr. for one                                         5'9"
e|------------------------|              |------------------------------|
B|-8----8----8~9----9-8---| <-right   /->|-6---8h9p9-----8-11-10___\3---|
G|-7----8v---7-----10-8---| <-left---/   |-7---8h10p8---10-12-11___\8---|
D|------------------------|              |------------------------------|
A|-2----3----2------5-3---| <-two gtrs-->|-1--------6----------5--------|
E|------------------------|              |------------------------------|

5'10"
e|-//15-14---15-17-17b18v__\8--8/10\6--/8--8/10\6----|
B|-----------17-19-19b20v__\9--9/11\8---8----11\8----|
G|-//15-14-------------------------------------------|
D|---------------------------------------------------|
A|---------------------------------------------------|
E|---------------------------------------------------|

5'39" right          left     /finger picked/
e|------------------|-----------------------|
B|-11\9---9\8---8v--|-8\5-------------------|
G|------------------|-------5\3__\2__/10vv--|
D|------------------|-----------------------|
A|------------------|-----------------------|
E|------------------|-----------------------|


[Solo from Live Killers]
~1 : hp

e|-------------------------------------------------------------------|
B|--------------------11----8-8-11b13vvv---13--15-16-13--15-16-b18---|
G|------10b12--r10p8-------------------------------------------------|
D|--8----------------------------------------------------------------|
A|-------------------------------------------------------------------|
E|-------------------------------------------------------------------|
                                         1                 1
e|---------15-16-18-b20-----18r16-15-16-15~16----15-------------------|
B|-16--18-------------------------------------18----18-16-15~16-------|
G|----------------------------------------------------------------13--|
D|--------------------------------------------------------------------|
A|--------------------------------------------------------------------|
E|--------------------------------------------------------------------|
          1
e|------------------18-18------------------15-16-18----|
B|-15-----------------------------15-16-18-------------|
G|----17-15~17--------------15-17----------------------|
D|-----------------------------------------------------|
A|-----------------------------------------------------|
E|-----------------------------------------------------|

e|----------------15-16-18-20-20---------------------------------13-----|
B|-------15-16-18--------------------15-16-13---15-16-13---15-16--------|
G|-15-17----------------------------------------------------------------|
D|----------------------------------------------------------------------|
A|----------------------------------------------------------------------|
E|----------------------------------------------------------------------|

e|-13-15---13---------------------------------|
B|-------------18r16------14-16-14\2-h3p2p0---|
G|-------------------13---------------------2-|
D|--------------------------------------------|
A|--------------------------------------------|
E|--------------------------------------------|



***************************************************
| ~    vibrato
| b    bend
| r    release
| p    pull-off
| h    hammer-on
| /    slide up
| \    slide down
***************************************************
Suggest correction
comments
print report bad tab
5 comments total. Showing first comments.
0 reply
Ross Petrie 0 wrote on May 10 2002, 12:00 am

This version sucks use the other!!

0 reply
spiderman86 60 wrote on September 24 2002, 12:00 am

the solos are a bit off but the rest is good

0 reply
beasttz! 10 wrote on May 18 2011, 06:11 am

is this correct?

guest
You may want to rate the tab now too:
select rating
Please do not post tabs as comments. Select "correction" instead!