Oops, an error
Loading. Please wait.

Holiday In Spain Bass Tab

version 1
version 1

Whole song

Interactive

982 views 6 this week
1 commentread comment
1 2 3 4 5
please rate
add to favorites
launch autoscroll
font size
0
reset
guitar tuner
Tab Pro tools
  • play this tab
  • loop segment
  • change instrument
  • show fretboard
  • metronome
×
Best way to learn
"Holiday In Spain"
Autoscroll
slow
fast
+/-
esc
set tempo
stop
Contributor
Difficulty
novice
Verse
(1:01)
G|----------------|
D|----------------|
A|-5--4-----------|
E|--------7----3--|

Chorus (1:40)
G|------------------------|
D|------------------------|
A|-5-----2--0--5--4--2----|
E|----3-----------------3-|


End Riff (3:34)
G|-------------|
D|-------------|
A|---------5---|
E|-7-5-3-1-----|
comments
We did not receive enough feedback on this tab! Please rate:
print report bad tab
1 2 3 4 5
1 comment total.
0 reply
LeBurque wrote on October 2 2013, 01:57 pm

Een redelijk goede tab! Het is een goede basis, erg leuk om er een beetje omheen te improviseren. Bedankt!

I want to post or [tab]
guest
You may want to rate the tab now too:
select rating
Please do not post tabs as comments. Select "correction" instead!