Oops, an error
Loading. Please wait.

Mojándolo Todo Tab

23 views 3 this week
no commentswrite comment
1 2 3 4 5
3 more votes to show rating
add to favorites
launch autoscroll
font size
0
reset
how to read this tab
guitar tuner
Autoscroll
slow
fast
+/-
esc
set tempo
stop
Help us to improve Ultimate-Guitar.com Take our survey!
×
Esta es una super rola del maestro Aute
espero q les guste y q te gusta a ti Andrea...


Tendida     con los muslos como alas abiertas
e--------7^---------------------0--------|
B--------8^-------------------1----------|
G---------------------------0------------|
D-------------------------2--------------|
A----------------------------------------|
E----------------------------------------|


dispuestas al vuelo       me insitas 
e------------3/5-3-----------------------|
B----------3-3/5-3--1/2\0----------------|
G---------0------------------------------|
D----------------------------------------|
A----------------------------------------|
E--------3-------------------------------|

 me invitas a viajar, por lacteas vías
e--------------------------------3-------|
B------1------------------------3--------|
G-----0------------------------0---------|
D----2-----------------------------0-0-0-|
A--3-------------------------------------|
E----------------------------------------|

 y negros agujeros
e------------------------|
B------------------------|
G------------------------|
D------------------2-2-2-|
A----------------3-------|
E------------------------|

G               C
levemente desvelados por tu mano 
    G           C
q juega con pudores y sudores 
     G                   C
enjugando entre petalos de carne 
                   D
el estigma de tu flor mas desnuda

            G
mojandolo todo
e-------------7-7-7-5-5-5-3-3-3--|
B-------------8-8-8-7-7-7-5-5-5--|
G--------------------------------|
D--------------------------------|
A--------------------------------|
E--------------------------------|

          Em
mojandolo todo
e-------------7-7-7-5-5-5-3-3-3--|
B-------------8-8-8-7-7-7-5-5-5--|
G--------------------------------|
D--------------------------------|
A--------------------------------|
E--------------------------------|

C               Am        D
volando por universos de licor

          G
humedas llamas
               C
los labios q con tus dedos
          G
Delicadamente
           C
delatas dilatas para mi
              G
mostrandome obscena
                C 
la cueva del milagro

G                   C
por donde emana el liquido rayo 
       G            C
de la vida incandecente fuente 
    G            C
lechosa lava salpica
                D
duras de agua profunda q inunda

            G
mojandolo todo
e-------------7-7-7-5-5-5-3-3-3--|
B-------------8-8-8-7-7-7-5-5-5--|
G--------------------------------|
D--------------------------------|
A--------------------------------|
E--------------------------------|

          Em
mojandolo todo
e-------------7-7-7-5-5-5-3-3-3--|
B-------------8-8-8-7-7-7-5-5-5--|
G--------------------------------|
D--------------------------------|
A--------------------------------|
E--------------------------------|

C               Am        D
volando por universos de licor

            G
mojandolo todo oooooooohhhh
e-------------7-7-7-5-5-5-3-3-3--|
B-------------8-8-8-7-7-7-5-5-5--|
G--------------------------------|
D--------------------------------|
A--------------------------------|
E--------------------------------|

          Em
oooouuuuoooohhhhh
e-------------7-7-7-5-5-5-3-3-3--|
B-------------8-8-8-7-7-7-5-5-5--|
G--------------------------------|
D--------------------------------|
A--------------------------------|
E--------------------------------|

C               Am        D
mmmmmmmmmm   uuuuummmmmmhhhhhhh

    G
[ch]E[/ch] boca
              C
besando tus labios incendiados 
               G
se dispone a beber
                C
en tu caliz de polen y licor
          G
y entre zumos y zumbidos
          C
de olas y alas

G           C
libidinosamente libar 
 G                      C
el nectar de la flor de tus mareas
   G               C
lamiendo la miel salada q te fluye 
   G
y quema mi lengua
   C                  D
q vibra la cima entre savia y saliba

            G
mojandolo todo
e-------------7-7-7-5-5-5-3-3-3--|
B-------------8-8-8-7-7-7-5-5-5--|
G--------------------------------|
D--------------------------------|
A--------------------------------|
E--------------------------------|

          Em
mojandolo todo
e-------------7-7-7-5-5-5-3-3-3--|
B-------------8-8-8-7-7-7-5-5-5--|
G--------------------------------|
D--------------------------------|
A--------------------------------|
E--------------------------------|

C               Am        D
volando por universos de licor


     G
mis alas
            C
de cera batiendo combatiendo 
              G
tu fuego en oleadas
                 C
de ardientes espumas y plumas
G
icaro volando 
          C
tan alto tan alto

    G                        C
q a punto de entrar en el jardin del Eden
     G                    C
fundidos un vuelo por tu derramado sol 
G                     C
cae como el angel exterminado 
     D
al mar de los naufragios

            G
mojandolo todo
e-------------7-7-7-5-5-5-3-3-3--|
B-------------8-8-8-7-7-7-5-5-5--|
G--------------------------------|
D--------------------------------|
A--------------------------------|
E--------------------------------|

          Em
mojandolo todo
e-------------7-7-7-5-5-5-3-3-3--|
B-------------8-8-8-7-7-7-5-5-5--|
G--------------------------------|
D--------------------------------|
A--------------------------------|
E--------------------------------|

C               Am        D
volando por universos de licor

            G
mojandolo todo
e-------------7-7-7-5-5-5-3-3-3--|
B-------------8-8-8-7-7-7-5-5-5--|
G--------------------------------|
D--------------------------------|
A--------------------------------|
E--------------------------------|

          Em
mojandolo todo
e-------------7-7-7-5-5-5-3-3-3--|
B-------------8-8-8-7-7-7-5-5-5--|
G--------------------------------|
D--------------------------------|
A--------------------------------|
E--------------------------------|

C              Am         D
volando por universos de licor

            G
mojandolo todo     ooooooohhhhhh
e-------------7-7-7-5-5-5-3-3-3--|
B-------------8-8-8-7-7-7-5-5-5--|
G--------------------------------|
D--------------------------------|
A--------------------------------|
E--------------------------------|

          Em
oooooohhhhhhhhhhhhh
e-------------7-7-7-5-5-5-3-3-3--|
B-------------8-8-8-7-7-7-5-5-5--|
G--------------------------------|
D--------------------------------|
A--------------------------------|
E--------------------------------|

C             Am          D
mmmmmmmmmmm  mmmmmmmmmhhhhhhhhhhhh


ya saben dudas, comentarios, anecdotas,
chistes u lo q sea, a mi mail
jcd_007@

si van a usar esta tab para algun lugar avisenme
no sean ****gandallas***** y si buscan un 
guitarrista ando en busca de banda =)
Suggest correction
Give kudos to tab author, rate the tab!
1 2 3 4 5
comments
print report bad tab
guest
You may want to rate the tab now too:
select rating
Wanna post a correction for this tab? Suggest correction