Oops, an error
Loading. Please wait.

El Flautista Tab

93 views 1 this week
no commentswrite comment
1 2 3 4 5
3 more votes to show rating
add to favorites
launch autoscroll
font size
0
reset
how to read this tab
guitar tuner
×
Best way to learn
"El Flautista"
Autoscroll
slow
fast
+/-
esc
set tempo
stop
este es el solo de el flautista

Escuchen bien el solo en la cancion para que sepan bien el tiempo
y entiendan el tab por que hay algunas pausas.

*nota: ~ vibrato
       h hammer(martillo)
       / arrastre

E.--12----------------------------------
B.-----15-13-12----------------12-13-12~
G.--------------14-12-14~-12-14---------

E.--12----------------------------------
B.-----15-13-12----------------12-13-12~
G.--------------14-12-14~-12-14---------

E.--15-13-12----------------------12-13-12-13-12h13-10/12~
B.-----------15-13-12----12-13-15-------------------------
G.--------------------14----------------------------------

E.--12----------------------------------
B.-----15-13-12----------------12-13-12~
G.--------------14-12-14~-12-14---------

E.--12----------------------------------
B.-----15-13-12----------------12-13-12~
G.--------------14-12-14~-12-14---------

E.--15-13-12----------------------12-13-12-13-12h13-10/12~
B.-----------15-13-12----12-13-15-------------------------
G.--------------------14----------------------------------

Este solo lo saque de oido, porfavor si hay algo mal no duden en
decirmelo ok.  Curlyricky90@

Saludos a mis amigos de la Iglesia aya en Colusa y a mis padres
y saludos a mi camarada osiel que le gusta esta rola.

KRAV hasta la muerte
Suggest correction
Give kudos to tab author, rate the tab!
1 2 3 4 5
comments
print report bad tab
guest
You may want to rate the tab now too:
select rating
Wanna post a correction for this tab? Suggest correction