Oops, an error
Loading. Please wait.

El Rey Tiburón Tab

version 1
version 1

Whole song

Interactive

by Maná
259 views 9 this week
no commentswrite comment
1 2 3 4 5
3 more votes to show rating
add to favorites
launch autoscroll
font size
0
reset
how to read this tab
guitar tuner
×
Best way to learn
"El Rey Tiburón"
Autoscroll
slow
fast
+/-
esc
set tempo
stop
esta cancion esta sencilla.
 Nadamas es de que le agarren bien el tiempo me tarde algo para
sacarla pero por fin la saque

Intro:

1|----------------/---------------/----------------/----------------/
2|----------------/---------------/----------------/----------------/
3|----------------/---------------/----------------/----------------/
4|--0-0-0-0-0-0-0-/---------------/----------------/----------------/
5|----------------/-----5--6--5--6/--5--3---3--3--5/-----5--6--5--6-/
6|----------------/-3-------------/----------------/-2--------------/

1|----------------/---------------/----------------/----------------/
2|----------------/---------------/----------------/----------------/
3|----------------/---------------/----------------/----------------/
4|----------------/---------------/----------------/----------------/
5|-5-3---3--3--5--/---5--6--5--6--/--5--3---3--3--5/-----5--6--5--6-/
6|----------------/-3-------------/----------------/-2--------------/

1|----------------/---------------/----------------/----------------/
2|----------------/-4-4-4--4-4-3--/-4-4-4-4-6-4----/--3-------------/
3|----------------/-3-3-3--3-3-2--/-3-3-3-3-5-3----/--2-------------/
4|----------------/-5-5-5--5-5-4--/-5-5-5-5-7-5----/--4-------------/
5|-5-3---3--3--5--/---------------/----------------/----------------/
6|----------------/---------------/----------------/----------------/

5|--0-1-3-1-0-/---5-5-5-5-5-5-5-5-/
6|------------/---3-3-3-3-3-3-3-3-/


todos me llaman el pez tibu...
el rey de los mares salados
todos me llaman el pez tiburón
el rey el amante dotado...

RIFF 2:

YA LLEGÓ EL TIBURON
4|----------2--0----/---------------/
5|----2--3----------/--5-5-5--------/
6|--3-------------3-/--5-5-5--------/


RIFF 3:

QUE YA LLEGÓ EL TIBURON
5|----5--6--5--6--/-5-3--3-3-5-/---5--6-5-6-/--5-3--3-3-5-/---5-6-5-6-/
6|--3-------------/------------/-2----------/-------------/-3---------/

1|----------------/------------/-------------/-3-3-3-3-3-3-3-3-3-/
2|----------------/------------/-------------/-3-3-3-3-3-3-3-3-3-/
3|----------------/------------/-------------/-3-3-3-3-3-3-3-3-3-/
4|----------------/------------/-------------/-5-5-5-5-5-5-5-5-5-/
5|--5-3--3-3-5----/---5-6-5-6--/-5-3--3-3-5--/-5-5-5-5-5-5-5-5-5-/
6|----------------/-2----------/-------------/-------------------/


canto en la vida que soy tiburon...
...que soy un tiburon enamorado.
cuidado sirenas ya ha llegado y está...
ya llegó el tiburon.

------------------------------RIFF 2--------------------------------

SOLO :

1|---------------/------------/-------2---------/--------------/
2|---------3---4-/-4-3--------/-3-2-3----4-3----/-----------10-/
3|---2-3-5-------/-----5---2--/---------------5-/--5-3--12-----/
4|-5-------------/------------/-----------------/--------------/
5|---------------/------------/-----------------/--------------/
6|---------------/------------/-----------------/--------------/

1|----------------------10--11--10--------10--/
2|--11-10-11-13--11-13----------------13------/

1|-11-10----10--14-11-10-----11-10----10-14-11-10-----/
2|-------13---------------13--------13------------13--/

1|--11-10-----10-14-11-10-----11-10-------------------/--8--/
2|---------13--------------13-------13--11-10---------/--8--/
3|--------------------------------------------12-10-8-/--8--/
4|----------------------------------------------------/--10-/
5|----------------------------------------------------/--10-/
6|----------------------------------------------------/--8--/

RIFF 4 :

1|-3--------2----------1-/-------0--------------/
2|---3----------3--------/--3--------3----------/
3|-----3------------3----/----3------------3----/

ESPERO QUE LES GUSTE

un saludo para los compas de la banda five minutes hugo y guillermo
otro para los de la BANDA EVIL DANCE : EL JUAN (J.L) Y EL FRAN.
paro morros.
Suggest correction
Give kudos to tab author, rate the tab!
1 2 3 4 5
comments
print report bad tab
guest
You may want to rate the tab now too:
select rating
Wanna post a correction for this tab? Suggest correction