Oops, an error
Loading. Please wait.

Mariposa Traicionera Tab

version 4
version 4

Interactive

218 views 3 this week
no commentswrite comment
1 2 3 4 5
3 more votes to show rating
add to favorites
launch autoscroll
font size
0
reset
how to read this tab
guitar tuner
×
Best way to learn
"Mariposa Traicionera"
Autoscroll
slow
fast
+/-
esc
set tempo
stop
MARIPOSA TRAICIONERA - MANÁ
1RA GUITARRA
e|------------888---8----------------666-----6---------|
b|--9-9-9-9-9-999-9-9--9-11-8--88888-888-8---8-8-9-6---|
g|-1010101010----10---10-12-8--88888-----8-----810-6---|
d|-----------------------------------------------------|
a|-----------------------------------------------------|
e|-----------------------------------------------------|

e|--------------------------------------------|
b|--------9---9---9---9---8---8-6-------------|
g|-6/10-10-10--10--10--10---8-----6-5/8/5-----|
d|--------------------------------------------|
a|--------------------------------------------|
e|--------------------------------------------|

e|------------------|
b|------------------|
g|------------------|
d|-5/6-5/3-1-3------|
a|------------------|
e|------------------|
Fm                D#                                  C#
   Eres como una mariposa, vuelas y posas vas de boca en boca,
                               G#
    fácil y ligera de quien te provoca.
Fm                      D#
   Yo soy ratón de tu ratonera,
                         e|--6-6-8-8-6-------|
                         b|------------------|
                         g|------------------|
                         d|------------------|
                         a|------------------|
                         e|------------------|
                           C#                        G#
Trampa que no mata pero no libera, vivo muriendo prisionero.
C#  D#         G#                Fm
   Mariposa traicionera, todo se lo lleva el viento,
e|-----------9-----9-----11-----11-----11-----11-----13-----13-|
b|-----------9-----9-----11-----11-1313---1313---1313---1313---|
g|-5555--1010--1010--1212---1212-------------------------------|
d|-------------------------------------------------------------|
a|-------------------------------------------------------------|
e|-------------------------------------------------------------|
C#  D#         C
   Mariposa no regreso.
e|-----9-----9-----11-----11-|
b|-----9-----9-----11-----11-|
g|-1010--1010--1212---1212---|
d|---------------------------|
a|---------------------------|
e|---------------------------|
e|-------------------|
b|-5-6-8/10/8-6-8/10-|
g|-------------------|
d|-------------------|
a|-------------------|
e|-------------------|
F
Ay, mariposa de amor, mi mariposa de amor,
                  C
ya no regreso contigo,
e|-------------------|
b|-8-8-8-6-8---------|
g|-------------------|
d|-------------------|
a|-------------------|
e|-------------------|
G#m                                   C
ay, mariposa de amor, mi mariposa de amor,
e|-6---------------6---|
b|-8---------------5---|
g|-7---------------5---|
d|---------------------|
a|---------------------|
e|---------------------|
                     F
nunca jamas junto a ti,
                   e|--8-10--8-10--8----|
                   b|-10-10-10-10-10----|
                   g|-------------------|
                   d|-------------------|
                   a|-------------------|
                   e|-------------------|
                    F7
vuela amor, vuela dolor,
e|--8-10101010--8--8-10--8---------|
b|-10-10101010-10-10-10-10---------|
g|---------------------------------|
d|---------------------------------|
a|---------------------------------|
e|---------------------------------|
                    A#
y no regreses a un lado,
e|-10-10-10/12/13----|
b|-11-11-11/13/15----|
g|-------------------|
d|-------------------|
a|-------------------|
e|-------------------|
                     F
ya vete de flor en flor,
e|-5-5-5-5-6-8-10-13-12--|
b|-6-6-6-6-6-8-11-15-13--|
g|-----------------------|
d|-----------------------|
a|-----------------------|
e|-----------------------|
     C               F
seduciendo a los pistilos,
e|---------------------|
b|---------------------|
g|---7-5---------------|
d|-7-----8-7-5/7/8-----|
a|---------------------|
e|---------------------|
A#                 F
y vuela cerca del sol,
e|--8---8---8---8--|
b|-10--10---8---8--|
g|-10--10---9---9--|
d|-----------------|
a|-----------------|
e|-----------------|
          C                 F
pa? que sientas lo que es dolor.
e|-5-5-5-5-6-8-------|
b|-6-6-6-6-6-8-------|
g|-------------------|
d|-------------------|
a|-------------------|
e|-------------------|
SOLO
e|-----------------------6--3-4-3--4-3-4-3------------|
b|---9---8-6--8-6-8-6--------------------------6------|
g|-6---6--------------3/6------------------3/6--------|
d|----------------------------------------------------|
a|----------------------------------------------------|
e|----------------------------------------------------|

e|--------------------------------8-----------------|
b|-6-8-6--8-9-8-6-------------8-9-9-8-9-8-9---------|
g|----------------5/8/5--8-10---------------10-8-10-|
d|--------------------------------------------------|
a|--------------------------------------------------|
e|--------------------------------------------------|

Fm                    D#                                   C#
   Ay mujer, cómo haces daño, pasan los minutos cual si fueran años,
                             G#
   mira estos celos me están matando.
e|----8--6--4--3--1-------|
b|------------------------|
g|-6/8--6--5--3--1--------|
d|------------------------|
a|------------------------|
e|------------------------|

Fm                    D#                                C#
   Ay mujer, que fácil eres, abres tus alitas muslos de colores,
                 G#
   donde se posan tus sabores.
C#  D#         G#                Fm
   Mariposa traicionera, todo se lo lleva el viento,
e|------9--------11--------11--|-----6-6-----|
b|-----------------------------|-9-8-----8-6-|
g|-8/10----10/12-----12/13-----|-------------|
d|-----------------------------|-------------|
a|-----------------------------|-------------|
e|-----------------------------|-------------|
C#  D#        C
   Mariposa no regreso.
e|-----9-----9-----11-----11-------|
b|-----9-----9-----11-----11-------|
g|-1010--1010--1212---1212---------|
d|---------------------------------|
a|---------------------------------|
e|---------------------------------|

e|---5-6-8-10-12--13--|
b|-8------------------|
g|--------------------|
d|--------------------|
a|--------------------|
e|--------------------|
F
Ay, mariposa de amor, mi mariposa de amor,
e|--8---8---8---8--|
b|-10--10--10--10--|
g|-10--10--10--10--|
d|-----------------|
a|-----------------|
e|-----------------|
                 C
ya no regreso contigo,
e|-------------------|
b|-8-8-8-6-8---------|
g|-------------------|
d|-------------------|
a|-------------------|
e|-------------------|
G#m                                   B7
ay, mariposa de amor, mi mariposa de amor,
e|-6---------------6---|
b|-8---------------5---|
g|-7---------------5---|
d|---------------------|
a|---------------------|
e|---------------------|
                     F
nunca jamas junto a ti,
                   e|--8-10--8-10--8----|
                   b|-10-10-10-10-10----|
                   g|-------------------|
                   d|-------------------|
                   a|-------------------|
                   e|-------------------|
                    F7
vuela amor, vuela dolor,
e|--8-10101010--8--8-10--8---------|
b|-10-10101010-10-10-10-10---------|
g|---------------------------------|
d|---------------------------------|
a|---------------------------------|
e|---------------------------------|
                         A#
que tengas suerte en tu vida,
e|---------------------66---88--13///-12///-10///--8///---|
b|------------88-1010-----------15///-13///-11///-10///---|
g|-77-99-1010---------------------------------------------|
d|--------------------------------------------------------|
a|--------------------------------------------------------|
e|--------------------------------------------------------|
                     F
ay, ay, ay, ay, ay dolor,
 C                   F
yo te lloré todo un río,
e|---------------------|
b|---------------------|
g|---7-5---------------|
d|-7-----8-7-5/7/8-----|
a|---------------------|
e|---------------------|
A#                 F
ay, ay, ay, ay, ay amor,
e|--8---8---8---8--|
b|-10--10---8---8--|
g|-10--10---9---9--|
d|-----------------|
a|-----------------|
e|-----------------|
 C                F
tú te me vas a volar.
e|-5-5-5-5-6-8---|----------|
b|-6-6-6-6-6-8---|-------9--|
g|---------------|----------|
d|---------------|-8/10-----|
a|---------------|----------|
e|---------------|----------|

e|------------888---8----------------666-----6---------|
b|--9-9-9-9-9-999-9-9--9-11-8--88888-888-8---8-8-9-6---|
g|-1010101010----10---10-12-8--88888-----8-----810-6---|
d|-----------------------------------------------------|
a|-----------------------------------------------------|
e|-----------------------------------------------------|

e|--------------------------------------------|
b|--------9---9---9---9---8---8-6-------------|
g|-6/10-10-10--10--10--10---8-----6-5/8/5-----|
d|--------------------------------------------|
a|--------------------------------------------|
e|--------------------------------------------|

e|---------6---|--------------|
b|---6-8-9---9-|--------------|
g|-8-----------|--------------|
d|-------------|-5/6-5/3-1-3--|
a|-------------|--------------|
e|-------------|--------------|

2DA GUITARRA
e|8--8----8--8-------6--6----6--6-------4--4----4--4------|
b|9--9----9--9-------8--8----8--8-------6--6----6--6------|
g|10-10---10-10------8--8----8--8-------6--6----6--6------|
d|10-10---10-10------8--8----8--8-------6--6----6--6------|
a|--------------------------------------------------------|
e|--------------------------------------------------------|

e|-4--4-----------------------|
b|-4--4-----------------------|
g|-5--5-----------------------|
d|-6--6----5/6-5/3-1-3--------|
a|----------------------------|
e|----------------------------|
Fm                D#                                  C#
   Eres como una mariposa, vuelas y posas vas de boca en boca,
e|8--8----8--8-------6--6----6--6-------4--4----4--4------|
b|9--9----9--9-------8--8----8--8-------6--6----6--6------|
g|10-10---10-10------8--8----8--8-------6--6----6--6------|
d|10-10---10-10------8--8----8--8-------6--6----6--6------|
a|--------------------------------------------------------|
e|--------------------------------------------------------|
                               G#
    fácil y ligera de quien te provoca.
e|-4--4-----------------------|
b|-4--4-----------------------|
g|-5--5-----------------------|
d|-6--6----5/6-5/3-1-3--------|
a|----------------------------|
e|----------------------------|
Fm                      D#                                 C#
   Yo soy ratón de tu ratonera, trampa que no mata pero no libera,
e|8--8----8--8-------6--6----6--6-------4--4----4--4------|
b|9--9----9--9-------8--8----8--8-------6--6----6--6------|
g|10-10---10-10------8--8----8--8-------6--6----6--6------|
d|10-10---10-10------8--8----8--8-------6--6----6--6------|
a|--------------------------------------------------------|
e|--------------------------------------------------------|
                    G#
   vivo muriendo prisionero.
e|-4--4----|
b|-4--4----|
g|-5--5----|
d|-6--6----|
a|---------|
e|---------|
C#  D#         G#                Fm
   Mariposa traicionera, todo se lo lleva el viento,
e|-4---4---6---6---4---4---8---8--|
b|-6---6---8---8---4---4---9---9--|
g|-6---6---8---8---5---5---10--10-|
d|-6---6---8---8---6---6---10--10-|
a|--------------------------------|
e|--------------------------------|
C#  D#        C
   Mariposa no regreso.
e|-4---4---6---6---3---3--|
b|-6---6---8---8---5---5--|
g|-6---6---8---8---5---5--|
d|-6---6---8---8---5---5--|
a|------------------------|
e|------------------------|
F
Ay, mariposa de amor, mi mariposa de amor,
e|-1--1---1--1---1--1--|
b|-1--1---1--1---1--1--|
g|-2--2---2--2---2--2--|
d|-3--3---3--3---3--3--|
a|---------------------|
e|---------------------|
                  C
ya no regreso contigo,
e|-3---3--|
b|-5---5--|
g|-5---5--|
d|-5---5--|
a|--------|
e|--------|
G#m                                   C
ay, mariposa de amor, mi mariposa de amor,
e|-3---3----3---3--|
b|-3---3----5---5--|
g|-3---3----5---5--|
d|-5---5----5---5--|
a|-----------------|
e|-----------------|
                     F
nunca jamas junto a ti,
e|-3--3----1--1--|
b|-5--5----1--1--|
g|-5--5----2--2--|
d|-5--5----3--3--|
a|---------------|
e|---------------|
                    F7
vuela amor, vuela dolor,
e|-1--1---1--1---1--1--|
b|-1--1---1--1---4--4--|
g|-2--2---2--2---2--2--|
d|-3--3---3--3---1--1--|
a|---------------------|
e|---------------------|
                    A#
y no regreses a un lado,
e|-1--1--|
b|-3--3--|
g|-3--3--|
d|-3--3--|
a|-------|
e|-------|
                     F
ya vete de flor en flor,
e|-1--1----1--1--|
b|-3--3----1--1--|
g|-3--3----2--2--|
d|-3--3----3--3--|
a|---------------|
e|---------------|
     C               F
seduciendo a los pistilos,
e|-3--3----1--1--|
b|-5--5----1--1--|
g|-5--5----2--2--|
d|-5--5----3--3--|
a|---------------|
e|---------------|
A#                 F
y vuela cerca del sol,
e|-1--1----1--1--|
b|-3--3----1--1--|
g|-3--3----2--2--|
d|-3--3----3--3--|
a|---------------|
e|---------------|
          C                 F
pa? que sientas lo que es dolor.
e|-3--3----1--1--|
b|-5--5----1--1--|
g|-5--5----2--2--|
d|-5--5----3--3--|
a|---------------|
e|---------------|
SOLO
e|8--8----8--8-------6--6----6--6-------4--4----4--4------|
b|9--9----9--9-------8--8----8--8-------6--6----6--6------|
g|10-10---10-10------8--8----8--8-------6--6----6--6------|
d|10-10---10-10------8--8----8--8-------6--6----6--6------|
a|--------------------------------------------------------|
e|--------------------------------------------------------|

e|-4--4-----------------------|
b|-4--4-----------------------|
g|-5--5-----------------------|
d|-6--6----5/6-5/3-1-3--------|
a|----------------------------|
e|----------------------------|

Fm                    D#                                     C#
   Ay mujer, cómo haces daño, pasan los minutos cual si fueran años,
e|8--8----8--8-------6--6----6--6-------4--4----4--4------|
b|9--9----9--9-------8--8----8--8-------6--6----6--6------|
g|10-10---10-10------8--8----8--8-------6--6----6--6------|
d|10-10---10-10------8--8----8--8-------6--6----6--6------|
a|--------------------------------------------------------|
e|--------------------------------------------------------|
                             G#
   mira estos celos me están matando.
e|-4--4-----------------------|
b|-4--4-----------------------|
g|-5--5-----------------------|
d|-6--6----5/6-5/3-1-3--------|
a|----------------------------|
e|----------------------------|
Fm                    D#                                     C#
   Ay mujer, que fácil eres, abres tus alitas muslos de colores,
e|8--8----8--8-------6--6----6--6-------4--4----4--4------|
b|9--9----9--9-------8--8----8--8-------6--6----6--6------|
g|10-10---10-10------8--8----8--8-------6--6----6--6------|
d|10-10---10-10------8--8----8--8-------6--6----6--6------|
a|--------------------------------------------------------|
e|--------------------------------------------------------|
                 G#
   donde se posan tus sabores.
e|-4--4----|
b|-4--4----|
g|-5--5----|
d|-6--6----|
a|---------|
e|---------|
C#  D#         G#                Fm
   Mariposa traicionera, todo se lo lleva el viento,
e|-4---4---6---6---4---4---8---8--|
b|-6---6---8---8---4---4---9---9--|
g|-6---6---8---8---5---5---10--10-|
d|-6---6---8---8---6---6---10--10-|
a|--------------------------------|
e|--------------------------------|
C#  D#        C
   Mariposa no regreso.
e|-4---4---6---6---3---3--|
b|-6---6---8---8---5---5--|
g|-6---6---8---8---5---5--|
d|-6---6---8---8---5---5--|
a|------------------------|
e|------------------------|
F
Ay, mariposa de amor, mi mariposa de amor,
e|-1--1---1--1---1--1--|
b|-1--1---1--1---1--1--|
g|-2--2---2--2---2--2--|
d|-3--3---3--3---3--3--|
a|---------------------|
e|---------------------|
                  C
ya no regreso contigo,
e|-3---3--|
b|-5---5--|
g|-5---5--|
d|-5---5--|
a|--------|
e|--------|
G#m                                   C
ay, mariposa de amor, mi mariposa de amor,
e|-3---3----3---3--|
b|-3---3----5---5--|
g|-3---3----5---5--|
d|-5---5----5---5--|
a|-----------------|
e|-----------------|
                     F
nunca jamas junto a ti,
e|-3--3----1--1--|
b|-5--5----1--1--|
g|-5--5----2--2--|
d|-5--5----3--3--|
a|---------------|
e|---------------|
                    F7
vuela amor, vuela dolor,
e|-1--1---1--1---1--1--|
b|-1--1---1--1---4--4--|
g|-2--2---2--2---2--2--|
d|-3--3---3--3---1--1--|
a|---------------------|
e|---------------------|
                         A#
que tengas suerte en tu vida,
e|-1--1--|
b|-3--3--|
g|-3--3--|
d|-3--3--|
a|-------|
e|-------|
                    F
ay, ay, ay, ay, ay dolor,
e|-1--1----1--1--|
b|-3--3----1--1--|
g|-3--3----2--2--|
d|-3--3----3--3--|
a|---------------|
e|---------------|
     C               F
yo te lloré todo un río,
e|-3--3----1--1--|
b|-5--5----1--1--|
g|-5--5----2--2--|
d|-5--5----3--3--|
a|---------------|
e|---------------|
A#                 F
ay, ay, ay, ay, ay amor,
e|-1--1----1--1--|
b|-3--3----1--1--|
g|-3--3----2--2--|
d|-3--3----3--3--|
a|---------------|
e|---------------|
 C                F
tú te me vas a volar.
e|-3--3----1--1--|
b|-5--5----1--1--|
g|-5--5----2--2--|
d|-5--5----3--3--|
a|---------------|
e|---------------|
OUTRO
e|8--8----8--8-------6--6----6--6-------4--4----4--4------|
b|9--9----9--9-------8--8----8--8-------6--6----6--6------|
g|10-10---10-10------8--8----8--8-------6--6----6--6------|
d|10-10---10-10------8--8----8--8-------6--6----6--6------|
a|--------------------------------------------------------|
e|--------------------------------------------------------|

e|-4--4-----------------------|
b|-4--4-----------------------|
g|-5--5-----------------------|
d|-6--6----5/6-5/3-1-3--------|
a|----------------------------|
e|----------------------------|
Suggest correction
Give kudos to tab author, rate the tab!
1 2 3 4 5
comments
print report bad tab
guest
You may want to rate the tab now too:
select rating
Wanna post a correction for this tab? Suggest correction