Oops, an error
Loading. Please wait.

Luz De Luna Tab

201 views 1 this week
no commentswrite comment
1 2 3 4 5
3 more votes to show rating
add to favorites
×
Save as Personal and add changes to this tab that will be seen only by you. Learn more ›
×
You can save this tab as Personal to edit and correct it or add notes. All changes will be seen only by you. Learn more »
save as personal
new!
launch autoscroll
font size
0
reset
how to read this tab
guitar tuner
Autoscroll
slow
fast
+/-
esc
set tempo
stop
                         Gm       Eb7      Cm7              
E||-------------------|-----------------|------------------|
B||---------------3-1-|--3----------1---|--1--3------------|
G||-----------0-3-----|---------------3-|--------0------2--|
D||---------0---------|-----------------|------------------|
A||-------------------|-----------------|------------------|
E||-------------------|-----------------|------------------|


  D7                   Gm       Eb7      Cm                 D7            
--------------------|-----------------|------------------|---------------|
----------------3-1-|--3----------1---|--1--3-------1----|--3------------|
------------0-3-----|---------------3-|--------0---------|---------------|
--0-------0---------|-----------------|------------------|---------------|
--------------------|-----------------|------------------|---------------|
--------------------|-----------------|------------------|---------------|


                                     Gm                                 
--------------|-------------------|----------------|-------------------|
--------------|-------------3--1--|----------------|-------------------|
--------------|-------0--3--------|--3----0--------|----3--3--3--3--2--|
--------------|----0--------------|----------------|-------------------|
--------------|-------------------|----------------|-------------------|
--------------|-------------------|----------------|-------------------|


  D7                                   Gm                 F7               
----------------|-------------------|------------------|------------------|
--1-------------|----1--1--1--1-----|--3---------------|---------1--------|
-----2----------|----------------3--|-----3--------2-0-|------------2-----|
----------------|-------------------|------------------|--3------------3--|
----------------|-------------------|------------------|------------------|
----------------|-------------------|------------------|------------------|


  Bb                                   Eb                 Edim             
----------------|-------------------|------------------|------------------|
----------------|-------------------|------------------|--1---------------|
--0-------------|----0--0-----0-----|--0--0------2--3--|---------3--2--0--|
-------3--------|----------3-----3--|------------------|------------------|
----------------|-------------------|------------------|------------------|
----------------|-------------------|------------------|------------------|


  D7                                   Gm7                Cm6       D7     
----------------|-------------------|------------------|------------------|
----------------|----1--1--1--4--1--|--3---------------|--1---------------|
--2-------------|-------------------|-----3------0-----|-----2------------|
-------0--------|-------------------|---------------0--|------------4--0--|
----------------|-------------------|------------------|------------------|
----------------|-------------------|------------------|------------------|


  Gm                                    D7                                  
-----------------|-------------------|------------------|------------------|
-----------------|----3--3--1--3--1--|--3--1------------|----------3----1--|
--3-2-0----------|-------------------|------------2-----|------------------|
-----------------|-------------------|---------------4--|--0--0------------|
-----------------|-------------------|------------------|------------------|
-----------------|-------------------|------------------|------------------|


  Gm                                    F7                                  
------------------|------------------|------------------|------------------|
--1---------------|------------------|------------------|--------1----4----|
-----3------------|--------3------2--|--2--2------2--0--|-----2------------|
--------------0-0-|--0--0------------|------------------|--3---------------|
------------------|------------------|------------------|------------------|
------------------|------------------|------------------|------------------|


  Bb                                  D7                                  
---------------|-------------------|-----------------|-------------------|
--3------------|----3--3--3--3-----|--3--1-----------|-------------------|
---------------|----------------2--|-----------------|-------------------|
---------------|-------------------|--------------0--|--0--0----0--0--0--|
---------------|-------------------|-----------------|-------------------|
---------------|-------------------|-----------------|-------------------|


  Gm                                     Cm               F7                
------------------|-------------------|----------------|-------------------|
--3---1-----------|-------------------|----------------|-------------------|
--------3----0----|----0--0--0-----2--|--0-------------|----0--0--0--3---2-|
------------------|-------------8-----|-------1--------|-------------------|
------------------|-------------------|----------------|-------------------|
------------------|-------------------|----------------|-------------------|


  Bb                 Cm       D7       Gm7                Cm6       D7     
----------------|-------------------|------------------|------------------|
----------------|----1--1--1--4--1--|--3---------------|--1---------------|
--0-------------|-------------------|-----3------0-----|-----2------------|
-------0--------|-------------------|---------------0--|------------4--0--|
----------------|-------------------|------------------|------------------|
----------------|-------------------|------------------|------------------|


  Gm                  Cm       D7       Gm7                Cm6       D7     
-----------------|-------------------|------------------|------------------|
-----------------|----1--1--1--4--1--|--3---------------|--1---------------|
--3--2--0--------|-------------------|-----3------0-----|-----2------------|
-----------------|-------------------|---------------0--|------------4--0--|
-----------------|-------------------|------------------|------------------|
-----------------|-------------------|------------------|------------------|


  Gm                               Gm       Eb7      Cm7              
-----------------|--------------|-----------------|------------------|
-----------------|--------------|--3----------1---|--1--3------------|
--3--2--0--------|--------------|---------------3-|--------0------2--|
-----------------|--------------|-----------------|------------------|
-----------------|--------------|-----------------|------------------|
-----------------|--------------|-----------------|------------------|


  D7                   Gm       Eb7      Cm                 D7            
--------------------|-----------------|------------------|---------------|
----------------3-1-|--3----------1---|--1--3-------1----|--3------------|
------------0-3-----|---------------3-|--------0---------|---------------|
--0-------0---------|-----------------|------------------|---------------|
--------------------|-----------------|------------------|---------------|
--------------------|-----------------|------------------|---------------|


                                     Gm                                 
--------------|-------------------|----------------|-------------------|
--------------|-------------3--1--|----------------|-------------------|
--------------|-------0--3--------|--3----0--------|----3--3--3--3--2--|
--------------|----0--------------|----------------|-------------------|
--------------|-------------------|----------------|-------------------|
--------------|-------------------|----------------|-------------------|


  D7                                   Gm                 F7               
----------------|-------------------|------------------|------------------|
--1-------------|----1--1--1--1-----|--3---------------|---------1--------|
-----2----------|----------------3--|-----3--------2-0-|------------2-----|
----------------|-------------------|------------------|--3------------3--|
----------------|-------------------|------------------|------------------|
----------------|-------------------|------------------|------------------|


  Bb                                   Eb                 Edim             
----------------|-------------------|------------------|------------------|
----------------|-------------------|------------------|--1---------------|
--0-------------|----0--0-----0-----|--0--0------2--3--|---------3--2--0--|
-------3--------|----------3-----3--|------------------|------------------|
----------------|-------------------|------------------|------------------|
----------------|-------------------|------------------|------------------|


  D7                                   Gm7                Cm6       D7     
----------------|-------------------|------------------|------------------|
----------------|----1--1--1--4--1--|--3---------------|--1---------------|
--2-------------|-------------------|-----3------0-----|-----2------------|
-------0--------|-------------------|---------------0--|------------4--0--|
----------------|-------------------|------------------|------------------|
----------------|-------------------|------------------|------------------|


  Gm                                    D7                                  
-----------------|-------------------|------------------|------------------|
-----------------|----3--3--1--3--1--|--3--1------------|----------3----1--|
--3-2-0----------|-------------------|------------2-----|------------------|
-----------------|-------------------|---------------4--|--0--0------------|
-----------------|-------------------|------------------|------------------|
-----------------|-------------------|------------------|------------------|


  Gm                                    F7                                  
------------------|------------------|------------------|------------------|
--1---------------|------------------|------------------|--------1----4----|
-----3------------|--------3------2--|--2--2------2--0--|-----2------------|
--------------0-0-|--0--0------------|------------------|--3---------------|
------------------|------------------|------------------|------------------|
------------------|------------------|------------------|------------------|


  Bb                                  D7                                  
---------------|-------------------|-----------------|-------------------|
--3------------|----3--3--3--3-----|--3--1-----------|-------------------|
---------------|----------------2--|-----------------|-------------------|
---------------|-------------------|--------------0--|--0--0----0--0--0--|
---------------|-------------------|-----------------|-------------------|
---------------|-------------------|-----------------|-------------------|


  Gm                                     Cm                 F7              
------------------|-------------------|----------------|-------------------|
--3---1-----------|-------------------|----------------|-------------------|
--------3----0----|----0--0--0-----2--|--0-------------|----0--0--0--3---2-|
------------------|-------------8-----|-------1--------|-------------------|
------------------|-------------------|----------------|-------------------|
------------------|-------------------|----------------|-------------------|


  Bb                 Cm       D7       Gm7                Cm6       D7     
----------------|-------------------|------------------|------------------|
----------------|----1--1--1--4--1--|--3---------------|--1---------------|
--0-------------|-------------------|-----3------0-----|-----2------------|
-------0--------|-------------------|---------------0--|------------4--0--|
----------------|-------------------|------------------|------------------|
----------------|-------------------|------------------|------------------|


  Gm                  Cm       D7       Gm7                D7               
-----------------|-------------------|------------------|------------------|
-----------------|----1--1--1--4--1--|--3---------------|--1---------3--1--|
--3--2--0--------|-------------------|-----3------0-----|-----2------------|
-----------------|-------------------|---------------0--|------------------|
-----------------|-------------------|------------------|------------------|
-----------------|-------------------|------------------|------------------|


                    Gm                                             
-----------------|---------------|--------------|--3--3----------||
--3---3----------|--3------------|--------------|--3--3----------||
----5------------|---------------|--------------|--3--3----------||
-----------------|---------------|--------------|----------------||
-----------------|---------------|--------------|----------------||
-----------------|---------------|--------------|----------------||
Suggest correction
Give kudos to tab author, rate the tab!
1 2 3 4 5
comments
print report bad tab
guest
Wanna post a correction for this tab? Suggest correction