Oops, an error
Loading. Please wait.

Te Daré Alabanza Y Honor Tab

40 views 1 this week
no commentswrite comment
1 2 3 4 5
3 more votes to show rating
add to favorites
launch autoscroll
font size
0
reset
how to read this tab
guitar tuner
×
Best way to learn
"Te Daré Alabanza Y Honor"
Autoscroll
slow
fast
+/-
esc
set tempo
stop
Ok. Este es el solo de alabanza y honor q es lo q Dios desea q su pueblo
le de, si hay algún error no duden en decírmelo weno así va:

Relación de acordes:

Estrofa: //F#m - A - D - F#m - E//
Coro: //F#m - A - D - E//
Repetir y seguido el puente así:
D - F#m - D - Esus4 y el solo:


E --------------------------------------------------------------
A -7h9----------------------------------------------------------
D -----7h9-9/11-11-7-------7/9----------------------------------
G -------------------6h7-6------9h11----------------------------
B -----------------------------------10h12-12b14-12b14-12p10----
E -----------------------------------------------------------10-

E --------------------------------------------------------------
A --------------------------------------------------------------
D --------------------------------------------------------------
G -------------------------------------------16-----------------
B ---10/12-17b19----17b19-17-15-14-15-15/17----17/19-----------
E -9--------------17----------------------------------17-17-----

Y allí seguidito viene esto junto con el efecto de teclado(no es muy
segura esta parte, si veo q hay q agregar algo lueguito se los mando OK):

E -----16-------------------------------------------------------
A --14----14-16----16-------------------------------------------
G --------------------------14-16-------------------------------
B --------------------------------17-19----17-------------------
E --------------------------------------16----16-19-19b21-------

Bueno eso fue todo Dios les bendiga a todos y los cuide q le den a Dios
alabanza y honor. Saludos a la iglesia Bautista Luz del mundo - Salaverry,
al ministerio de alabanza y al director de alabanza 
Suggest correction
Give kudos to tab author, rate the tab!
1 2 3 4 5
comments
print report bad tab
guest
You may want to rate the tab now too:
select rating
Wanna post a correction for this tab? Suggest correction