Oops, an error
Loading. Please wait.

El Hijo De La Inés Tab

version 1
version 1

Whole song

Interactive

by Marea
341 views 1 this week
no commentswrite comment
1 2 3 4 5
3 more votes to show rating
add to favorites
launch autoscroll
font size
0
reset
how to read this tab
guitar tuner
×
Best way to learn
"El Hijo De La Inés"
Autoscroll
slow
fast
+/-
esc
set tempo
stop
EL SOLO: EL HIJO DE LA INES
disfruten y califiquen el tab, que no muera el rock.......
1|----------------------------------------------------------------
2|8-6-5----6/10-8v--6-5------------------------5-----5---------------
3|-----7-5-------------7-5-5p7v-5p75p75p75-5p7--5-7v--7-5------------
4|--------7---------------7-------------------------------7-5-------
5|-----------------------------------------------------------7-6-5
6|-----------------------------------------------------------------8


1|------------------------------------------------------------------------
2|--------------------------865-------------12-15---12-15---12-15---12-15-
3|---5-5-5-5---5-5--5-5-p7v----77-55-5p7-/14-----14-------14-------14----
4|/7----7---/7----7-----------------7----------------------------------
5|------------------------------------------------------------------
6|--------------------------------------------------------------------


1|---------------------------------------------------------
2|------13-15---13-15---13-15vvvvvvvvvvvvvvvvvvvvvvvv----
3|---14-------14-------14------------------------------------
4|---------------------------------------------------------
5|---------------------------------------------------------
6|---------------------------------------------------------

Bueno aca esta el solo, date una vuelta por los otros solos de marea
que he sacado y ayudame calificando este tab,
lo puedo mejorar pero es como para que tengan una idea de cómo va,
ustedes busquen bien la cantidad de notas que usa capas que algo me he comido
Saludos cualquier cosa escribirme a
 dedicado a R_TA como todos mis temas?.
leonardo delmas mendoza Argentina
Suggest correction
Give kudos to tab author, rate the tab!
1 2 3 4 5
comments
print report bad tab
guest
You may want to rate the tab now too:
select rating
Wanna post a correction for this tab? Suggest correction