Oops, an error
Loading. Please wait.

Canto Caribeño Chords

version 1
version 1

Whole song

11 views 1 this week
no commentswrite comment
1 2 3 4 5
3 more votes to show rating
add to favorites
launch autoscroll
font size
0
reset
transpose
0
reset
simplify chords
display chords
guitar tuner
×
Best way to learn
"Canto Caribeño"
Autoscroll
slow
fast
+/-
esc
set tempo
stop
Notas:
G:320033
Cadd9:x32033
G/B:x20033
D:xx0232


Intro:
               G                       Cadd9                    G/B                       D
e/-------------3-------------------------3-----------------------3-----------------------2h3---------------
B/------3------------3-----------3-------------3----------3-----------3----------3---------------3--------
G/---------0------0-----0-----------0------0-----0----------0-----0-----0----------2--------2-----2-----
D/------------------------------------------------------------------------------0----------------------------
A/----------------------------3-------------------------2----------------------------------------------------
E/---3-------------------------------------------------------------------------------------------------------


    G             Cadd9                G/B             D
La mañana va llegando hasta la playa y el azul del día ya florece
    G                 Cadd9                G/B             D
La alegría y el canto de mi pueblo reflejan de nuevo al continente
    G                 Cadd9                G/B             D
Las palmeras en las costas caribeñas serán la inspiración de mis ancestros
    G                 Cadd9                    G/B                D
Sólo echaban un vistazo al grande cielo y entonaban éste canto parrandero
   
   G                 Cadd9                G/B                    D
Ese canto canto hermoso caribeño que me inspira con el alma e´ parrandero 
    G                 Cadd9                     G/B                D
Con las congas los timbales panderetas acordeones guacharacas y trompetas
    G                      Cadd9                   G/B                          D
con las palmas voy llevando el ritmo alegre pa´ entonarte siempre el canto caribeño
    
   G             Cadd9      G/B          D
Ya te tengo no te dejo no te vayas te lo ruego
    G                 Cadd9        G/B             D
Que si tu me dejas me muero sin tus besos yo me enloquezco
    
   G           Cadd9          G/B              D                    G
Quiero gritar quiero cantar y en mis canciones poderte llevar
              Cadd9                G/B             D                        G
Y así tenerte prendida en mi piel para       que nadie te pueda arrancar
    
    G             Cadd9      G/B          D
Ya te tengo no te dejo no te vayas te lo ruego
    G                 Cadd9        G/B             D
Que si tu me dejas me muero sin tus besos yo me enloquezco
    G           Cadd9           G/B             D                G
Te voy a amar hasta el final y nunca nunca te voy olvidar 
               Cadd9                 G/B        D
Tú eres la magia que me hace soñar toda la vida te voy a cantar

PD: Acá está la introducción de la canción niña

e/--5-5---7-7---9-9----9-9---10-10----9-9-----11-11---12-12h14-12--------------
B/--5-5---9-9---10-10--9-9---10-10---10-10---12-12---12-12---------------------
G/--6-6---9-9---11-11---9-9---11-11----9-9-----11-11----13-13------------------
Suggest correction
Give kudos to tab author, rate the tab!
1 2 3 4 5
comments
print report bad tab
guest
You may want to rate the tab now too:
select rating
Wanna post a correction for this tab? Suggest correction