Oops, an error
Loading. Please wait.

Todo Es Para Él Tab

34 views 1 this week
no commentswrite comment
1 2 3 4 5
3 more votes to show rating
add to favorites
launch autoscroll
font size
0
reset
how to read this tab
guitar tuner
×
Best way to learn
"Todo Es Para él"
Autoscroll
slow
fast
+/-
esc
set tempo
stop
Intro: x4

G---------------------------------|----------|
D---------------------------------|----------|
A-7-7-7-------0-------------------|7--7-7-7-7|
E-------7-8-8---8-10-10-8-10-8-10-|----------|

Verso 1:
Em                      C
   Toda mi vida es para El
Em                          C
   Toda mi alabanza es para El
C-D
      Mi canción devoción y mis fuerzas
C             G          Em
  Y mi adoración es para El

Intro: x2

G---------------------------------|----------|
D---------------------------------|----------|
A-7-7-7-------0-------------------|7--7-7-7-7|
E-------7-8-8---8-10-10-8-10-8-10-|----------|


Verso 1:
   Toda mi vida es para El
   Toda mi alabanza es para El
      Mi canción devoción y mis fuerzas
  Y mi adoración es para El

Coro:
G                C
Canto para El,  Danzo para El
Em                          C
Grito que soy libre sólo en El

G              C
Vivo para El, la razón de ser
Em                          C
Grito que soy libre sólo en El
             Em
Todo es para El


Intro: x2
G---------------------------------|
D---------------------------------|
A-7-7-7-------0-------------------|
E-------7-8-8---8-10-10-8-10-8-10-|

Verso 1:
   Toda mi vida es para El
   Toda mi alabanza es para El
      Mi canción devoción y mis fuerzas
  Y mi adoración es para El

Coro:
Canto para El,  Danzo para El
Grito que soy libre sólo en El

Vivo para El, la razón de ser
Grito que soy libre sólo en El
Todo es para El

Intro:

G---------------------------------|
D---------------------------------|
A-7-7-7-------0-------------------| x2
E-------7-8-8---8-10-10-8-10-8-10-|

Puente: x7

    Em       Bm       C     Am     Em
    OH  Oh_____oh______h  Danzo para El

Coro:
Canto para El,  Danzo para El
Grito que soy libre sólo en El

Vivo para El, la razón de ser
Grito que soy libre sólo en El
Todo es para El
Suggest correction
Give kudos to tab author, rate the tab!
1 2 3 4 5
comments
print report bad tab
guest
You may want to rate the tab now too:
select rating
Wanna post a correction for this tab? Suggest correction