Oops, an error
Loading. Please wait.

Dispárame Un Te Quiero Tab

43 views 1 this week
no commentswrite comment
1 2 3 4 5
3 more votes to show rating
add to favorites
launch autoscroll
font size
0
reset
how to read this tab
guitar tuner
Autoscroll
slow
fast
+/-
esc
set tempo
stop
Help us to improve Ultimate-Guitar.com Take our survey!
×
____ acordes ____________
|                       |
| C:    032010          |
| Am:   002210          |
| Dm:   000231          |
| F:    133211          |
| G:    355433          |
|_______________________|


[intro]:
    C                               Am
F-||----5-3-----5-3-----5-3-----5-3|----5-3-----5-3-----5-3-----5-3|
B-||-5-------5-------5-------5-----|-5-------5-------5-------5-----|
G-||5-5-----5-5-----5-5-----5-5----|5-5-----5-5-----5-5-----5-5----|
D-||-------------------------------|-------------------------------|
A-||-------------------------------|-------------------------------|
F-||-------------------------------|-------------------------------|

    Dm                              F
F-||----5-3-----5-3-----5-3-----5-3|----5-3-----5-3-----5-3-----5-3|
B-||-5-------5-------5-------5-----|-5-------5-------5-------5-----|
G-||5-5-----5-5-----5-5-----5-5----|5-5-----5-5-----5-5-----5-5----|
D-||-------------------------------|-------------------------------|
A-||-------------------------------|-------------------------------|
F-||-------------------------------|-------------------------------|


        C
Otro Domingo sin historia, el frío que todo lo abriga
           Am
en los carteles arrancados de conciertos atrasados,
           Dm
en los letreros de las tiendas que anuncian cese de negocio
            F
y en los semáforos en rojo de carreteras desiertas.
       C
Siempre veo enemigos en la sonrisa de la gente,
         Am
en callejones sin salida o en una dirección prohibida.
          Dm
Estoy cansado de fallarme, estoy cansado de fallarte,
         F
y empezaré muy pronto a odiarme si no empiezo enseguida
    C           Am       Dm      F
a amarte.


         C
He facturado un tequiero para que hoy viaje a tu encuentro,
           Am
para que llegue hasta tu puerta solamente con lo puesto.
         Dm
He facturado un deseo a las caderas del cielo.
       F
Sólo cuando estoy contigo siento que vuelvo a estar conmigo.
         C
Que nos corten el teléfono, el gas, la luz y el agua,
          Am
y que amanezca una mañana cortado el mundo por impago.
           Dm
Que se desnude la despensa si vuelves tú a desnudarme,
              F
que vuelva a no contar el tiempo si cuentas tú
            C           Am       Dm      F
en cada instante.


G
   Y tú dispárame un tequiero,
F                         C
   hazme el blanco de el resto de tu vida
G                            F
   y pon tu nombre a mi corazón.


C     Am     Dm     F    [x4]

C


###------------------------------###
### Tablatura de: Enrique Moraño ###
### Sevilla [Spain]     OCT-2006 ###
###      emorano@     ###
###------------------------------###
Suggest correction
Give kudos to tab author, rate the tab!
1 2 3 4 5
comments
print report bad tab
guest
You may want to rate the tab now too:
select rating
Wanna post a correction for this tab? Suggest correction