Oops, an error
Loading. Please wait.

Mañana Tab

43 views 1 this week
no commentswrite comment
1 2 3 4 5
3 more votes to show rating
add to favorites
launch autoscroll
font size
0
reset
how to read this tab
guitar tuner
Autoscroll
slow
fast
+/-
esc
set tempo
stop
Help us to improve Ultimate-Guitar.com Take our survey!
×
B:  224442 (o 799877 mejor para arpegio de entrada)
E:  022100 (o 779997 mejor para arpegio de entrada)
Gm#:466444
F#: 244322
Cm#:446654


[intro]
      B                            E
E-||-(7)--7-----7------7------7---(7)--------------------------------
B-||-(7)---7-----7------7------7--(9)--9-7-----9-7-----9-7-----9-7---
G-||-(8)-8-----8------8------8----(9)-9-------9-------9-------9------
D-||--9------9------9------9-------9--------9-------9-------9--------
A-||-(9)--------------------------(7)--------------------------------
E-||-(7)--------------------------(7)--------------------------------


[comienza la letra sobre estos arpegios]
      B                            E
E-||-(7)--7-----7------7------7---(7)--------------------------------
B-||-(7)---7-----7------7------7--(9)--9-7-----9-7-----9-7-----9-7---
G-||-(8)-8-----8------8------8----(9)-9-------9-------9-------9------
D-||--9------9------9------9-------9--------9-------9-------9--------
A-||-(9)--------------------------(7)--------------------------------
E-||-(7)--------------------------(7)--------------------------------

      B                            E
E-||-(7)--7-----7------7------7---(7)--------------------------------
B-||-(7)---7-----7------7------7--(9)--9-7-----9-7-----9-7-----9-7---
G-||-(8)-8-----8------8------8----(9)-9-------9-------9-------9------
D-||--9------9------9------9-------9--------9-------9-------9--------
A-||-(9)--------------------------(7)--------------------------------
E-||-(7)--------------------------(7)--------------------------------

     G#m                           F#
E-||-(4)--4-----4------4------4---(2)--4-2-----4-2-----4-2-----4-2---
B-||-(4)---4-----4------4------4--(2)--------------------------------
G-||-(4)-4-----4------4------4----(3)-3-------3-------3-------3------
D-||--6------6------6------6-------4--------4-------4-------4--------
A-||-(6)--------------------------(4)--------------------------------
E-||-(4)--------------------------(2)--------------------------------


 B
Desenfundo mis paralabras

Tan despacio como puedo
  E
Viéndote
 B
Leo propaganda

Del sol sobre tu cuerpo
     E
Al atardecer
G#m
Aparcados muy cerca de un río 
                      F#
Que sonríe igual que tú

   B                     F#
Quiero verte amanecer y verte anochecer
           G#m         
Si ayer y hoy nos dan la espalda
       E
Como amantes que se van
          B
Siempre quedará mañana,
      G#m
La mañana de mañana,
         C#m
Junto a tí
         F#
Junto a tí


[la letra sobre los arpegios igual que al principio]
  B
Cuando no sean noticia

Las canciones que escribí
    E
Pensando en tí
  B
Cuando mi contestador

Esté vacío de gente que
 E 
No me amo
G#m
Aparcado en el fondo de tus manos
             F#
Empiezo a vivir

   B                     F#
Iremos a gastarnos unas cuantas noches más
       G#m                     E
A las calles más oscuras y gastadas de Madrid
         B       
No he dudado ni un momento
   G#m 
Ni un solo momento
        C#m
De tu amor
        F#
De tu amor

   B                     F#
Quiero verte amanecer y verte anochecer
           G#m         
Si ayer y hoy nos dan la espalda
       E
Como amantes que se van
          B
Siempre quedará mañana,
      G#m
La mañana de mañana,
         C#m
Junto a tí
         F#
Junto a tí


[repetir intro dos veces]


[la letra sobre los arpegios igual que al principio]
 B
Dejaré de hablar de cosas

Que no he conocido
      E
Ni conoceré
 B
Dejaré de hablar más alto
                  
Para hablar más claro
      E
De nosotros dos
     G#m
Hay mucho más de mí en tí
                           F#
De lo que queda dentro de mí


   B                     F#
Iremos a gastarnos unas cuantas noches más
       G#m                     E
A las calles más oscuras y gastadas de Madrid
         B       
No he dudado ni un momento
   G#m 
Ni un solo momento
        C#m
De tu amor
        F#
De tu amor

   B                     F#
Quiero verte amanecer y verte anochecer
           G#m         
Si ayer y hoy nos dan la espalda
       E
Como amantes que se van
          B
Siempre quedará mañana,
      G#m
La mañana de mañana,
         C#m
Junto a tí
         F#
Junto a tí

Junto a tí

[repetir intro y fundir]


###--------------------------------###
### Tablatura de:  Enrique Moraño  ###
###  Sevilla [España]  para ATAME  ###
### emorano@   MAR-2003 ###
###--------------------------------###
Suggest correction
Give kudos to tab author, rate the tab!
1 2 3 4 5
comments
print report bad tab
guest
You may want to rate the tab now too:
select rating
Wanna post a correction for this tab? Suggest correction