Oops, an error
Loading. Please wait.

Diseño Rolas Bass

by Molotov
138 views 1 this week
no commentswrite comment
1 2 3 4 5
2 more votes to show rating
add to favorites
×
Save as Personal and add changes to this tab that will be seen only by you. Learn more ›
×
You can save this tab as Personal to edit and correct it or add notes. All changes will be seen only by you. Learn more »
save as personal
new!
launch autoscroll
font size
0
reset
guitar tuner
Autoscroll
slow
fast
+/-
esc
set tempo
stop
  INTRO

  G--------- X8
  D---------
  A-5-5-----
  E-----5-5-


  VERSO A

  G-------- X8
  D--------
  A-5-5----
  E-----5-5

  VERSO B         ( SOY UN BUENISIMO PA NADA )

  G--------------------------------
  D-5-5----5-5---------------------
  A-----5-5----5-5-----------------
  E----------------5-5-0-0-5-5-0-0-

  CORO            ( DISEñO ROLAS )

  G------- X2
  D-------
  A-------
  E-3-3-5-


  ESTA NOTA LA USAN EN EL SEG (1:20) Y
  TAMBIEN EN EL FINAL POR AHI DEL (2:59)

   FINAL

  G-----------------
  D-----------------
  A-------1-2-3-4-5-
  E-5-4-5-----------
Suggest correction
Give kudos to tab author, rate the tab!
1 2 3 4 5
comments
print report bad tab
guest
Wanna post a correction for this tab? Suggest correction