Oops, an error
Loading. Please wait.

Ñero Tab

64 views 1 this week
no commentswrite comment
1 2 3 4 5
3 more votes to show rating
add to favorites
launch autoscroll
font size
0
reset
how to read this tab
guitar tuner
×
Best way to learn
"ñero"
Autoscroll
slow
fast
+/-
esc
set tempo
stop
Esta canción lleva bajeo y acorde el bajeo es así:


Bajeo 1
e|--------------------------|--------------------------|
B|--------------------------|--------------------------|
G|--------------------------|--------------------------|
D|-----0-----------------2--|-----0-----------------2--|
A|-----------2-----0--2-----|-----------2-----0--2-----|
E|--0-----0-----0-----------|--0-----0-----0-----------|


Bajeo1  se repite hasta donde dice Ñero Ñero...
Su hermana le dice que se levante temprano....


   (ñero)(ñero)ya todos sabemos quien es el mero mero...
    A  G  C  A   A         C            D         D
e|--5--3--8--5---5---------8------------10--------10--|
B|--5--3--8--5---5---------8------------10--------10--|
G|--6--4--9--6---6---------9------------11--------11--|
D|--7--5--10-7---7---------10-----------12--------12--|
A|--7--5--10-7---7---------10-----------12--------12--|
E|--5--3--8--5---5---------8------------10--------10--|

después, cuando termina de decir esto se repite el bajeo cuando
sigue cantando
Suggest correction
Give kudos to tab author, rate the tab!
1 2 3 4 5
comments
print report bad tab
guest
You may want to rate the tab now too:
select rating
Wanna post a correction for this tab? Suggest correction