Oops, an error
Loading. Please wait.

Porque No Te Haces Para Alla, Al Más Alla Tab

by Molotov
125 views 3 this week
no commentswrite comment
1 2 3 4 5
3 more votes to show rating
add to favorites
launch autoscroll
font size
0
reset
how to read this tab
guitar tuner
×
Best way to learn
"Porque No Te Haces Para Alla, Al Más Alla"
Autoscroll
slow
fast
+/-
esc
set tempo
stop
¿Porqúe no te haces para allá...al más allá?

Verso

Esta es la parte del bajo, no estoy seguro de que sea así
-------------------------------------------------------------------
-------------------------------------------------------------------
---------2------2--------3-----------------------------------------
--0--1-----1------1------------------------------------------------


Coro
-------------------------------------------------------------------
-------------------------------------------------------------------
-------7~~-------7-10~~----10-12~~-----12-10-12--------------------
-------7~~-------7-10~~----10-12~~-----12-10-12--------------------
-------5~~-------5--8~~-----8-10~~-----10--8-10--------------------
-------------------------------------------------------------------
Porqué no te haces...


------------------------------------------------------------------------
------------------------------------------------------------------------
------------------------------------------------------------------------
-----------3------------------------------------------------------------
---5-5-------5---------3-4-5--------------------------------------------
---------------------5--------------------------------------------------
Dónde? al más allá...


Final
------------------------------------------------------------------------
------------------------------------------------------------------------
------------------------------------------------------------------------
------------------------------------------------------------------------
-----5~~----5---5-5-----8-----7-7----5-5----4-5~~-----------------------
------------------------------------------------------------------------

Yo pienso que esto está bien, pero envíenme cualquier queja,

Si tienen notas de molotov, o cualquier otra buena banda,
por favor, envíenmelas.

      Oswaldo Alvarez
   ___________________
       Manta, Ecuador
Suggest correction
Give kudos to tab author, rate the tab!
1 2 3 4 5
comments
print report bad tab
guest
You may want to rate the tab now too:
select rating
Wanna post a correction for this tab? Suggest correction