Oops, an error
Loading. Please wait.

Sentido Común Tab

59 views 1 this week
no commentswrite comment
1 2 3 4 5
3 more votes to show rating
add to favorites
launch autoscroll
font size
0
reset
how to read this tab
guitar tuner
×
Best way to learn
"Sentido Común"
Autoscroll
slow
fast
+/-
esc
set tempo
stop
 INTRO


E|-------------------------------------|
B|-------------------------------------| CONTINUA CON EL DE ABAJO
G|-------------------------------------|
D|-------7-----------------7-----------|
A|-----7---8---7-8-7-----7---8---7-----|
E|-0-0-------0-------0-0-------0---8-7-|

CONTINUA

E-------------------------------------|
B-------------------------------------|
G-------------------------------------|
D------7-------------9-7---6-7--9-7---|
A----7---8---7-8-7---9-7---6-7--9-7---|
E-0-0-------0--------7-5---8-5--7-5---|


VERSO 1

E|---------|  X6
B|---------|
G|---------|
D|-2--3--2-|
A|-2--3--2-|
E|-0--1--0-|


CORO 1 X2

E|-------------------------------------|
B|-------------------------------------| CONTINUA CON EL DE ABAJO
G|-------------------------------------|
D|-------7-----------------7-----------|
A|-----7---8---7-8-7-----7---8---7-----|
E|-0-0-------0-------0-0-------0---8-7-|

CONTINUA

E-------------------------------------|
B-------------------------------------|
G-------------------------------------|
D------7-------------9-7---6-7--9-7---|
A----7---8---7-8-7---9-7---6-7--9-7---|
E-0-0-------0--------7-5---8-5--7-5---|


VERSO 2-------------TERMINA ASI

E|---------|  X6       E|-------|  X1
B|---------|           B|-------|
G|---------|           G|-------|
D|-2--3--2-|           D|---2---|
A|-2--3--2-|           A|---2---|
E|-0--1--0-|           E|---0---|


CORO Y FINAL LAS VECES QUE SEA NECESARIO

E|-------------------------------------|
B|-------------------------------------| CONTINUA CON EL DE ABAJO
G|-------------------------------------|
D|-------7-----------------7-----------|
A|-----7---8---7-8-7-----7---8---7-----|
E|-0-0-------0-------0-0-------0---8-7-|

CONTINUA

E-------------------------------------|
B-------------------------------------|
G-------------------------------------|
D------7-------------9-7---6-7--9-7---|
A----7---8---7-8-7---9-7---6-7--9-7---|
E-0-0-------0--------7-5---8-5--7-5---|
Suggest correction
Give kudos to tab author, rate the tab!
1 2 3 4 5
comments
print report bad tab
guest
You may want to rate the tab now too:
select rating
Wanna post a correction for this tab? Suggest correction