Oops, an error
Loading. Please wait.

Beethoven - Para Elisa Tab

version 2
version 2

Whole song

401 views 1 this week
no commentswrite comment
1 2 3 4 5
3 more votes to show rating
add to favorites
launch autoscroll
font size
0
reset
how to read this tab
guitar tuner
×
Best way to learn
"Beethoven - Para Elisa"
Autoscroll
slow
fast
+/-
esc
set tempo
stop
e|-----|-------------|-------------|-------------|---------0---|-------------|
b|-5-4-|-5-4-5-0-3-1-|-------------|-0---------0-|-1---------4-|-5-4-5-0-3-1-|
g|-----|-------------|-2---2-----2-|-----1---1---|-----2-------|-------------|
D|-----|-------------|---2-----2---|---2---2-----|---2---2-----|-------------|
A|-----|-------------|-0-----3-----|-0-----------|-0-----------|-------------|
E|-----|-------------|-------------|-------------|-------------|-------------|

e|-------------|-------------|-------------|-0-------1-0-|---------0---|
b|-------------|-0-------1-0-|-------0-1-3-|-----1-------|-3---0-----3-|
g|-2---2-----2-|-----1-------|-2---2-------|---0---0-----|---0---------|
D|---2-----2---|---2---2-----|---2---------|-------------|-------3-----|
A|-0-----3-----|-------------|-0-----------|-3-----------|-------------|
E|-------------|-0-----------|-------------|-------------|-3-----------|

e|-------------|-----0---0---|-0-0-0-------|-------------|-------------|
b|-1-------3-1-|-0-----------|-------------|---4-5-4-5-4-|-5-4-5-0-3-1-|
g|-----2-------|-------------|-------------|-------------|-------------|
D|---2---2-----|---2---2---2-|-------1-2-1-|-2-----------|-------------|
A|-0-----------|-------------|-------------|-------------|-------------|
E|-------------|-0-----------|-------------|-------------|-------------|

e|-------------|-------------|---------0---|-------------|-------------|
b|-------------|-0---------0-|-1---------4-|-5-4-5-0-3-1-|-------------|
g|-2---2-----2-|-----1---1---|-----2-------|-------------|-2---2-----2-|
D|---2-----2---|---2---2-----|---2---2-----|-------------|---2-----2---|
A|-0-----3-----|-------------|-0-----------|-------------|-0-----3-----|
E|-------------|-0-----------|-------------|-------------|-------------|

e|-------------|-------------|-------------|---------0-1-|-1-------1---|
b|-0-------1-3-|-------------|-2-----------|-3-------2-3-|-3-------3---|
g|-----1-------|-2-----------|-0-----------|-2-----------|-1-------1---|
D|---2---2-----|-------------|-2-----------|-3-----------|-------------|
A|-------------|-0-0-0-0-0-0-|-0-0-0-0-0-0-|-0-0-0-0-0-0-|-0-0-0-0-0-0-|
E|-0-----------|-------------|-------------|-------------|-------------|

e|-0-----------|-------------|-------------|-------------|-------------|-------------|
b|-1-----------|-3-------1-0-|-------------|-----1---0---|-------------|-2-----------|
g|-2-----------|-------------|-2-------2---|-2-----------|-2-----------|-0-----------|
D|-------------|-0-0-0-0-0-0-|-1-1-1-1-1-1-|-----2---0---|-------------|-2-----------|
A|-0-0-0-0-0-0-|-------------|-------------|-3-----------|-0-0-0-0-0-0-|-0-0-0-0-0-0-|
E|-------------|-------------|-------------|-0-0-0-0-0-0-|-------------|-------------|
                              _____________          ____
                              | C1        |          |C1|
e|---------0-1-|-1-------1---|-1-----------|-------------|-------------|-----------|
b|-3-------2-3-|-3-------3---|-3-----------|-4-------3-1-|-------------|-----------|
g|-2-----------|-0-------0---|-3-----------|-0-----------|-3-------2---|-1-------1-|
D|-3-----------|-------------|-------------|---------3-1-|-3-----------|-0-------0-|
A|-0-0-0-0-0-0-|-0-0-0-0-0-0-|-1-1-1-1-1-1-|-1-1-1-1-1-1-|-1-1-1-1-1-1-|-2-2-2-2-2-|
E|-------------|-------------|-------------|-------------|-------------|-----------|

e|------|--------|-----------0-------|-----0-5-8-12-10-7-|-6-5-3-2-|
b|------|-0------|---------1---3-1-0-|---1---------------|---------|
g|-2----|-1------|-------2-----------|-2-----------------|---------|
D|-2----|-2------|-----2-------------|-------------------|---------|
A|-3----|--------|-0-3---------------|-0-----------------|---------|
E|------|-0------|-------------0-----|-------------------|---------|

e|-9-8-7-6-5-4-3-2-1-|-------------|-------------|-------------|-------|
b|-------------------|-5-4-5-0-3-1-|-------------|-0---------0-|-1-----|
g|-------------------|-------------|-2---2-----2-|-----1---1---|-----2-|
D|-------------------|-------------|---2-----2---|---2---2-----|---2---|
A|-------------------|-------------|-0-----3-----|-------------|-0-----|
E|-------------------|-------------|-------------|-0-----------|-------|

e|-------------|-------------|-------------|-------------|-0-------1-0-|
b|-5-4-5-0-3-1-|-------------|-0-------1-0-|-------0-1-3-|-----1-------|
g|-------------|-2---2-----2-|-----1-------|-2---2-------|---0---0-----|
D|-------------|---2-----2---|---2---2-----|---2---------|-------------|
A|-------------|-0-----3-----|-------------|-0-----------|-3-----------|
E|-------------|-------------|-0-----------|-------------|-------------|

e|---------0---|-------------|-----0---0---|-0-0-0-------|-------------|
b|-3---0-----3-|-1-------3-1-|-0-----------|-------------|---4-5-4-5-4-|
g|---0---------|-----2-------|-------------|-------------|-------------|
D|-------3-2---|---2---2-----|---2---2---2-|-------1-2-1-|-2-----------|
A|-------------|-0-----------|-------------|-------------|-------------|
E|-3-----------|-------------|-0-----------|-------------|-------------|

e|-------------|-------------|-------------|---------0---|-------------|
b|-5-4-5-0-3-1-|-------------|-0---------0-|-1---------4-|-5-4-5-0-3-1-|
g|-------------|-2---2-----2-|-----1---1---|-----2-------|-------------|
D|-------------|---2-----2---|---2---2-----|---2---2-----|-------------|
A|-------------|-0-----3-----|-------------|-0-----------|-------------|
E|-------------|-------------|-0-----------|-------------|-------------|
                              _______
                              | C2  |
e|-------------|-------------|-------|
b|-------------|-0-------1-0-|-------|
g|-2---2-----2-|-----1-------|--2----|
D|---2-----2---|---2---2-----|--2----|
A|-0-----3-----|-------------|--3----|
E|-------------|-0-----------|--5----|
Suggest correction
Give kudos to tab author, rate the tab!
1 2 3 4 5
comments
print report bad tab
guest
You may want to rate the tab now too:
select rating
Wanna post a correction for this tab? Suggest correction