Oops, an error
Loading. Please wait.

Chopin - Les Sylphides Prelude Tab

261 views 1 this week
no commentswrite comment
1 2 3 4 5
3 more votes to show rating
add to favorites
launch autoscroll
font size
0
reset
how to read this tab
guitar tuner
×
Best way to learn
"Chopin - Les Sylphides Prelude"
Autoscroll
slow
fast
+/-
esc
set tempo
stop
Chopin - Les Sylphides Prelude (Opus28 #7)

La sexta cuerda se afina en Re
Se toca a velocidad moderada
 = enharmónico

e --------------------------7--4--5--10--10--------
B ------7--8--5--5--5-------8--6--7---7---7--------
G ------------6--6--5------------------------------
D --7---------5--5--6-----------------0---0--------
A ------0-----------0--12-------------------------
D -----------------------------0-------------------


e --10---------------------------------------------
B ---7-----7-----4--5--8------8-----8-----2--------
G ---------------------9------9-----9-----0--------
D ---0-----7-----4--5--9------9-----9--------------
A ---------------0------------------0--------------
D -------------------------------------------------


e -------------------------------------------------
B --2--3--7------7---7-------------7----8--5---5---
G --0--------------------------------------6---6---
D -----4--7------7---7------4-s-7----------5---5---
A --------5------5---5-------------0---------------
D --0----------------0-----------------------------


e ------------7---4---5---14---14----14------------
B --5---------8---6---7---------------0------7-----
G --6----------------------------------------8-----
D --5----------------------0---12----13------------
A --0----12--------------------------12-----------
D ----------------0-------------------9------------


e ----------7-----7---7----------------10---10---10--|
B --7---8---8-----8---6----2---5---3----7----7----7--|
G --8---9---7-----7--------0---0------------------7--|
D --------------------7------------4----0------------|
A --------------------0----------------------0----0--|
D -----------------------------0------------------0--|
Suggest correction
Give kudos to tab author, rate the tab!
1 2 3 4 5
comments
print report bad tab
guest
You may want to rate the tab now too:
select rating
Wanna post a correction for this tab? Suggest correction