Oops, an error
Loading. Please wait.

Leyenda Tab

262 views 3 this week
no commentswrite comment
1 2 3 4 5
2 more votes to show rating
add to favorites
launch autoscroll
font size
0
reset
how to read this tab
guitar tuner
Autoscroll
slow
fast
+/-
esc
set tempo
stop
Help us to improve Ultimate-Guitar.com Take our survey!
×
bueno aqui esta la tablatura correcta de la cancion leyenda o tmb conocida 
Asturias una transcripción que me llevo como una semana
es una rola muy chida dos tres dificil pero practiken y les va a salir chido


    p i p m p  i p m p i p  m  etc...
E-|---------------------------|---------------------------|
B-|---0---0----0---0---0----0-|---0---0----0---0---0----0-|
G-|---------------------------|---------------------------|
D-|-----9---10---7---9--------|-----9---10---7---9--------|
A-|-7--------------------10---|-7--------------------10---|
E-|---------------------------|---------------------------|
    1   3   4    1   3   4      1   3   4    1   3   4


E-|---------------------------|---------------------------|
B-|---0---0----0---0---0----0-|---0---0----0---0---0----0-|
G-|---------------------------|---------------------------|
D-|-----9---10---7---9--------|-7------------7------------|
A-|-7--------------------10---|-----9---10-------9---10---|
E-|---------------------------|---------------------------|
    1   3   4    1   3   4      1   3   4    1   3   4


E-|---------------------------|---------------------------|
B-|---0---0----0---0---0----0-|---0---0----0---0---0----0-|
G-|---------------------------|---------------------------|
D-|-----9---10---7---9--------|-----9---10---7---9--------|
A-|-7--------------------10---|-7--------------------10---|
E-|---------------------------|---------------------------|
    1   3   4    1   3   4      1   3   4    1   3   4


E-|---------------------------|---------------------------|
B-|---0---0----0---0---0----0-|---0---0----0---0----0---0-|
G-|---------------------------|---------------------------|
D-|-----9---10---7---9--------|-7-------------------------|
A-|-7--------------------10---|-----9---10---7------------|
E-|---------------------------|------------------10---8---|
    1   3   4    1   3   4      1   3   4    1   4    2


    1/2CVII-------------------------------------------\
E-|--------------------------|--------------------------|
B-|---0---0----0---0---0---0-|---0---0----0---0---0---0-|
G-|--------------------------|--------------------------|
D-|-----9---10---7---9-------|-----9---10---7---9-------|
A-|----------------------9---|----------------------9---|
E-|-7------------------------|-7------------------------|
    1   3   4    1   4   3     1   3   4    1   4   3


    1/2CVII---------------------------------------------\
E-|---------------------------|---------------------------|
B-|---0---0---0---0----0----0-|---0----0---0---0----0---0-|
G-|---------------------------|---------------------------|
D-|---------7---9---10---12---|-9---10---7---9------------|
A-|-----9---------------------|------------------10---9---|
E-|-7-------------------------|---------------------------|
    1   3   1   2   3    4      1   2    1   3   4    3


    1/2CVII-------------------------------------------\
E-|--------------------------|--------------------------|
B-|---0---0----0---0---0---0-|---0---0----0---0---0---0-|
G-|--------------------------|--------------------------|
D-|-----9---10---7---9-------|-----9---10---7---9-------|
A-|----------------------9---|----------------------9---|
E-|-7------------------------|-7------------------------|
    1   3   4    1   4   3     1   3   4    1   4   3


    1/2CVII-------\
E-|---------------------------|---------------------------|
B-|---0---0---0----0----0---0-|----0---0---0---0---0---0--|
G-|---------------------------|---------------------------|
D-|-----7---9---10---12---9---|-10---7---9---5---7---4----|
A-|---------------------------|---------------------------|
E-|-7-------------------------|---------------------------|
    1   1   2   3    4    2     3    1   4   2   4   1


    p i m p i m p i m p i m p i m p i m   etc...
E-|-----7-----7-----7-----7-----7-----7-|
B-|---0-----0-----0-----0-----0-----0---|
G-|-------4-----5-----------4-----0-----|
D-|-------------------7-----------------|
A-|-7-----------------------------------|
E-|-0-----------------------------------|
    3   4 1   4 2   4 3   4 1   4     4


E-|-----7-----7-----7-----7-----7-----7-|
B-|---0-----0-----0-----0-----0-----0---|
G-|-------4-----5-----------4-----0-----|
D-|-------------------7-----------------|
A-|-7-----------------------------------|
E-|-0-----------------------------------|
    3   4 1   4 2   4 3   4 1   4     4


E-|-----7-----7-----7-----7-----7-----7-|
B-|---0-----0-----0-----0-----0-----0---|
G-|-------4-----5-----------4-----0-----|
D-|-------------------7-----------------|
A-|-7-----------------------------------|
E-|-0-----------------------------------|
    3   4 1   4 2   4 3   4 1   4     4


E-|-----7-----7-----7-----7-----7-----7-|
B-|---0-----0-----0-----0-----0-----0---|
G-|-------------------------------------|
D-|-7-----4-----5-----7-----4-----5-----|
A-|-------------------------------------|
E-|-------------------------------------|
    3   4 1   4 2   4 3   4 1   4 2   4


E-|-----7-----7-----7-----7-----7-----7-|
B-|---0-----0-----0-----0-----0-----0---|
G-|-------4-----5-----------4-----0-----|
D-|-------------------7-----------------|
A-|-7-----------------------------------|
E-|-0-----------------------------------|
    3   4 1   4 2   4 3   4 1   4     4


E-|-----7-----7-----7-----7-----7-----7-|
B-|---0-----0-----0-----0-----0-----0---|
G-|-------4-----5-----------4-----0-----|
D-|-------------------7-----------------|
A-|-7-----------------------------------|
E-|-0-----------------------------------|
    3   4 1   4 2   4 3   4 1   4     4


E-|-----7-----7-----7-----7-----7-----7-|
B-|---0-----0-----0-----0-----0-----0---|
G-|-------4-----5-----------4-----0-----|
D-|-------------------7-----------------|
A-|-7-----------------------------------|
E-|-0-----------------------------------|
    3   4 1   4 2   4 3   4 1   4     4


E-|-----7-----7-----7-----7-----7-----7-|
B-|---0-----0-----0-----0-----0-----0---|
G-|-------------0-----------------------|
D-|-7-----4-----------------0-----------|
A-|-------------------7-----------------|
E-|-------------------------------8-----|
    3   4 1   4     2 1   2     2 3   2


   CVII
      p m i p  m i p m i p m i p  m i  etc...
E-|-7---------------------------------|
B-|-7---0-0----0-0---0-0---0-0----0-0-|
G-|-8---------------------------------|
D-|-9-9-----10-----7-----9------------|
A-|-9--------------------------10-----|
E-|-7---------------------------------|
      3     4      1     3     4


   CVII
E-|-7---------------------------------|
B-|-7---0-0----0-0---0-0---0-0----0-0-|
G-|-8---------------------------------|
D-|-9-9-----10-----7-----9------------|
A-|-9--------------------------10-----|
E-|-7---------------------------------|
      3     4      1     3     4


   CVII
E-|-7----------------------------------|
B-|-7---0-0---0-0---0-0-----0-0----0-0-|
G-|-8----------------------------------|
D-|-9-------7------9-----10-----12-----|
A-|-9-9--------------------------------|
E-|-7----------------------------------|
      3     1      2     3     4


E-|---------------------------------------|
B-|---0-0----0-0---0-0---0-0----0-0---0-0-|
G-|---------------------------------------|
D-|-9-----10-----7-----9------------------|
A-|--------------------------10-----9-----|
E-|---------------------------------------|
    3     4      1     3     4      3


   CVII
E-|-7---------------------------------|
B-|-7---0-0----0-0---0-0---0-0----0-0-|
G-|-8---------------------------------|
D-|-9-9-----10-----7-----9------------|
A-|-9--------------------------10-----|
E-|-7---------------------------------|
      3     4      1     3     4


   CVII
E-|-7---------------------------------|
B-|-7---0-0----0-0---0-0---0-0----0-0-|
G-|-8---------------------------------|
D-|-9-9-----10-----7-----9------------|
A-|-9--------------------------10-----|
E-|-7---------------------------------|
      3     4      1     3     4


   CVII
E-|-7----------------------------------|
B-|-7---0-0---0-0---0-0-----0-0----0-0-|
G-|-8----------------------------------|
D-|-9-------7------9-----10-----12-----|
A-|-9-9--------------------------------|
E-|-7----------------------------------|
      3     1      2     3     4


E-|---------------------------------------|
B-|---0-0----0-0---0-0---0-0----0-0---0-0-|
G-|---------------------------------------|
D-|-9-----10-----------9------------9-----|
A-|--------------12----------10-----------|
E-|---------------------------------------|
    1     2      4     1     2      1


E-|-12----------------------------------|
B-|-0----0-0----0-0----0-0---0-0----0-0-|
G-|-0-----------------------------------|
D-|-9--9-----10------------9------------|
A-|-10--------------12-----------10-----|
E-|-0-----------------------------------|
       1     2      4      1     2


E-|-12----------------------------------|
B-|-0----0-0----0-0----0-0---0-0----0-0-|
G-|-0-----------------------------------|
D-|-9--9-----10------------9------------|
A-|-10--------------12-----------10-----|
E-|-0-----------------------------------|
       1     2      4      1     2


E-|-12----------------------------------|
B-|-0----0-0----0-0----0-0---0-0----0-0-|
G-|-0-----------------------------------|
D-|-9--9-----10------------9------------|
A-|-10--------------12-----------10-----|
E-|-0-----------------------------------|
       1     2      4      1     2


E-|-----------------------------------------|
B-|----0-0---0-0----0-0----0-0---0-0----0-0-|
G-|-----------------------------------------|
D-|-----------------------------------------|
A-|-12-----9-----10-----12-----9-----10-----|
E-|-----------------------------------------|
    4      1     2      4      1     3


    CVIII-------------------------------\
       p  i A p  i A p i A p  i A p  i A
E-|-12------8------8-----8------8------8--|
B-|-8-------------------------------------|
G-|-9-----9------9-----9------9------9----|
D-|-8--10-----12-----9-----10-------------|
A-|-10----------------------------10------|
E-|-8-------------------------------------|
       3  2 1 4  2 1 3 2 1 4  2 1 3  2 1


    CVIII-------------------------------\
       p  i A p  i A p i A p  i A p  i A
E-|-12------8------8-----8------8------8--|
B-|-8-------------------------------------|
G-|-9-----9------9-----9------9------9----|
D-|-8--10-----12-----9-----10-------------|
A-|-10----------------------------10------|
E-|-8-------------------------------------|
       3  2 1 4  2 1 3 2 1 4  2 1 3  2 1


    CVIII-------------------------------\
       p  i A p  i A p i A p  i A p  i A
E-|-12------8------8-----8------8------8--|
B-|-8-------------------------------------|
G-|-9-----9------9-----9------9------9----|
D-|-8--10-----12-----9-----10-------------|
A-|-10----------------------------10------|
E-|-8-------------------------------------|
       3  2 1 4  2 1 3 2 1 4  2 1 3  2 1


    CVII-------------------------------\
    p i m p i m p  i m p i m p i m p i m
E-|-----8-----8------8-----8-----8-----8-|
B-|---7-----7------7-----7-----7-----7---|
G-|--------------------------------------|
D-|-7------------------7-----------------|
A-|-------9-----10-----------7-----9-----|
E-|--------------------------------------|


    CVII----------------------------\
      p i A p  i  A p i A p i A p i A
E-|-7-----7-------7-----7-----7-----7-|
B-|-7---------------------------------|
G-|-8---8------8------8-----8-----8---|
D-|-9-9-----10------8-----9-----------|
A-|-9---------------------------9-----|
E-|-7---------------------------------|
      3 2 1 4  2  1 3 2 1 3 2 1 4 2 1


    CVIII-------------------------------\
       p  i A p  i A p i A p  i A p  i A
E-|-8-------8------8-----8------8------8--|
B-|-8-------------------------------------|
G-|-9-----9------9-----9------9------9----|
D-|-10-10-----12-----9-----10-------------|
A-|-10----------------------------10------|
E-|-8-------------------------------------|
       3  2 1 4  2 1 3 2 1 4  2 1 3  2 1


    CVII----------------------------\
      p i A p  i  A p i A p i A p i A
E-|-7-----7-------7-----7-----7-----7-|
B-|-7---------------------------------|
G-|-8---8------8------8-----8-----8---|
D-|-9-9-----10------8-----9-----------|
A-|-9---------------------------9-----|
E-|-7---------------------------------|
      3 2 1 4  2  1 3 2 1 3 2 1 4 2 1


    CVIII-------------------------------\
       p  i A p  i A p i A p  i A p  i A
E-|-8-------8------8-----8------8------8--|
B-|-8-------------------------------------|
G-|-9-----9------9-----9------9------9----|
D-|-10-10-----12-----9-----10-------------|
A-|-10----------------------------10------|
E-|-8-------------------------------------|
       3  2 1 4  2 1 3 2 1 4  2 1 3  2 1


   CVII
      p i m p  i m p i m p i m p i m   etc...
E-|-7-----7------7-----7-----7-----7--|
B-|-7---0------0-----0-----0-----0----|
G-|-8--------------------------0------|
D-|-9-9-----10-----7-----9------------|
A-|-9---------------------------------|
E-|-7---------------------------------|
      3   1 4    1 2   1 4   1     4


E-|-----7-----7-----7-----7-----7-----7-|
B-|---0-----0-----0-----0-----0-----0---|
G-|-------------------------------------|
D-|-7-----4-----5-----7-----4-----5-----|
A-|-------------------------------------|
E-|-------------------------------------|
    3   4 1   4 2   4 3   4 1   4 2   4


E-|-----7-----7-----7-----7-----7-----7-|
B-|---0-----0-----0-----0-----0-----0---|
G-|-------------------------------------|
D-|-------4-----5-----7-----4-----5-----|
A-|-7-----------------------------------|
E-|-------------------------------------|
    3   4 1   4 2   4 3   4 1   4 2   4


E-|-----7-----7-----7-----7-----7-----7-|
B-|---0-----0-----0-----0-----0-----0---|
G-|-------------------------------------|
D-|-------4-----5-----------------------|
A-|-7-----------------7-----5-----3-----|
E-|-------------------------------------|
    3   4 1   4 2   4 3   4 1   4 1   4


    p i p i p  i p i p i p  i  etc...
E-|---------------------------|---------------------------|
B-|---0---0----0---0---0----0-|---0---0----0---0---0----0-|
G-|---------------------------|---------------------------|
D-|-----9---10---7---9--------|-7------------7------------|
A-|----------------------10---|-----9---10-------9---10---|
E-|-7-------------------------|---------------------------|
    1   3   4    1   3   4      1   3   4    1   3   4


E-|---------------------------|---------------------------|
B-|---0---0----0---0---0----0-|---0---0----0---0----0---0-|
G-|---------------------------|---------------------------|
D-|--------------7------------|---------------------------|
A-|-7---9---10-------9---10---|-7---9---10---7------------|
E-|---------------------------|------------------10---8---|
    1   3   4    1   3   4      1   3   4    1   4    2


    CVII-------------------------------\
    p i m p i m p i m p  i m p i m p i m
E-|--------------------------------------|
B-|-----7-----7-----7------7-----7-----7-|
G-|---8-----8-----8------8-----8-----8---|
D-|-------------9-----10-----8-----9-----|
A-|-------9------------------------------|
E-|-7------------------------------------|
    1 2 1 3 2 1 4 2 1 4  2 1 3 2 1 4 2 1


    p i m p i m p  i m p i m p i m p  i m
E-|-----0-----0------0-----0-----0------0-|
B-|---8-----8------8-----8-----8------8---|
G-|-------0------------7------------------|
D-|-------------10-----------9-----10-----|
A-|---------------------------------------|
E-|-7-------------------------------------|
    1 2     2   4  2   1 2   3 2   4  2


    CVII-------------------------------\
    p i m p i m p i m p  i m p i m p i m
E-|--------------------------------------|
B-|-----7-----7-----7------7-----7-----7-|
G-|---8-----8-----8------8-----8-----8---|
D-|-------------9-----10-----8-----9-----|
A-|-------9------------------------------|
E-|-7------------------------------------|
    1 2 1 3 2 1 4 2 1 4  2 1 3 2 1 4 2 1


    p i m p i m p  i m p i m p i m p  i m
E-|-----0-----0------0-----0-----0------0-|
B-|---8-----8------8-----8-----8------8---|
G-|-------0------------7------------------|
D-|-------------10-----------9-----10-----|
A-|---------------------------------------|
E-|-7-------------------------------------|
    1 2     2   4  2   1 2   3 2   4  2


    CVII--------------------------------\
    p i m p i m p i m p  i m p i m p  i m
E-|---------------------------------------|
B-|-----7-----7-----7------7-----7------7-|
G-|---8-----8-----8------8-----8------8---|
D-|-------------9-----10-----8-----10-----|
A-|-------9-------------------------------|
E-|-7-------------------------------------|
    1 2 1 3 2 1 4 2 1 4  2 1 3 2 1 4  2 1


    CVII--------------------------------\
    p i m p i m p i m p  i m p i m p i m
E-|--------------------------------------|
B-|-----7-----7-----7------7-----7-----7-|
G-|---8-----8-----8------8-----8-----8---|
D-|-9----10-----8----10------9-----------|
A-|--------------------------------9-----|
E-|--------------------------------------|
    3 2 1 4 2 1 3 2 1 4  2 1 4 2 1 3 2 1


    p p  p p p  p    p  p  p  p  p  p     p
E-|----------------|-------------11-14-|-----|--------||
B-|--------0-------|-12-------12-------|---------|---0----||
G-|-------------11-|-------11----------|---------|--------||
D-|----------13----|----13-------------|---------|---4----||
A-|------9---------|-------------------|---------|---6----||
E-|-7-11-----------|-------------------|---------|---7----||
    1 4  2   3   1   2  3  1  2  1  1
    pizzicato------------------------/


Part 2:
    |   |   |     |   |   |         |  |  |    |   |    |
E-|-7-------5-7-|-10------7h8p7-5-|-7--------|------------|
B-|-------------|-----------------|----------|-----7(19)--|
G-|-------------|-----------------|----------|-8----------|
D-|-9-------7-9-|-12------9-----7-|-9--------|-9----------|
A-|-------------|-----------------|----------|-9----------|
E-|-------------|-----------------|----------|-7----------|


    |   |   |     |   |   |         |  |  |    |   |    |
E-|-7-------5-7-|-10------7h8p7-5-|-7--------|------------|
B-|-------------|-----------------|----------|-0---3(15)--|
G-|-------------|-----------------|----------|-0----------|
D-|-9-------7-9-|-12------9-----7-|-9--------|-0----------|
A-|-------------|-----------------|----------|------------|
E-|-------------|-----------------|----------|-3----------|


    |   |   |     |   |       |      |  |  |   |  |     |
E-|-7-------6---|-----3h5p3-2------|---------|------------|
B-|-------------|-------------5/8--|-7-------|----7(19)---|
G-|-------------|------------------|---------|-8----------|
D-|-9-------8---|-----5-----4-2/5--|-4-------|-9----------|
A-|-------------|------------------|---------|-9----------|
E-|-------------|------------------|---------|-7----------|


    |   |   |      |   |       |     |  |  |    |   |   |
E-|-7-------8--7-|-6-2-3h5p3-2-----|-------0--|-----------|
B-|--------------|-------------5/8-|-7--------|-----------|
G-|--------------|-----------------|----------|-8---------|
D-|-9-------10-9-|-8-4-5-----4-2/5-|-4-----8--|-9---------|
A-|--------------|-----------------|-------9--|-9---------|
E-|--------------|-----------------|-------8--|-7---------|


              CIV----------\
    |  |  |   |  |       |     |  |  |    |   |   |
E-|---------|--------------8-|----------|------------|
B-|----0----|----4h5p4---4---|----0-----|-----0---0--|
G-|----7----|----5-----7-----|----7-----|------------|
D-|-5-------|-4--------------|-5--------|-----8---7--|
A-|---------|----------------|----------|-6/9-----6--|
E-|---------|----------------|----------|------------|


    |  |  |   |  |  |   |  |  |   |  |  |   |  |  |
E-|---------|---------|---------|----0----|----------|
B-|-------0-|-------0-|-------0-|---------|----4-----|
G-|----0----|---------|---------|----3----|----4-----|
D-|---------|----4----|----4----|---------|-------4--|
A-|-7-------|-5-------|-3-------|---------|-2--------|
E-|---------|---------|---------|-2-------|----------|


    |   |     |     |  |  |   |   |     |     |  |  |
E-|-----0---------|---------|-----0---------|----------|
B-|---------------|----4----|---------------|----4-----|
G-|---------------|----4----|---------------|----4-----|
D-|---------------|-------4-|---------------|-------4--|
A-|-0-2-3-5p3p2-0-|-2-------|-0-2-3-5p3p2-0-|-2--------|
E-|---------------|---------|---------------|----------|


    |   |        |     |   |   |     |   |   |     |  |  |
E-|------------------|-------------|-------------|---------|
B-|------------------|-------------|-------------|-------0-|
G-|------------------|-------------|-------------|-------8-|
D-|-7-9-10-12p10p9-7-|-9-8-4-7-6-2-|-5-4---------|---------|
A-|------------------|-------------|-----6-8-7---|----9----|
E-|------------------|-------------|-----------8-|-7-------|
    pizzicato----------------------------------/


    CV----------\              CV----------\
    |   |     |     |  |  |    |   |     |     |  |  |
E-|-----5---------|----------|-----5---------|----------|
B-|-----6---------|-------9--|-----6---------|-------9--|
G-|-----5---------|-------9--|-----5---------|-------9--|
D-|---------------|-------9--|---------------|-------9--|
A-|-----5-7p5-----|----7-----|-----5-7p5-----|----7-----|
E-|-7-8-------8-7-|-0--------|-7-8-------8-7-|-0--------|


    |   |     |     |   |   |     |   |     |
E-|-----0---------|-------------|-0-------------|
B-|---4---------0-|---0---0---0-|---7-8-3h5---3-|
G-|-5-----4h5-2---|-0-----------|-0---0-----5---|
D-|-7---7-----4---|-2---4---5---|-----0-----4---|
A-|-0---0---------|-----6---7---|-----------0---|
E-|---------------|-------------|-8---7---------|


    |   |   |     |   |   |         |   |   |
E-|-------------|-----5-8-6h8p6-5-|-8-5-3-2/5-8-|
B-|---3---3---3-|-6-8-------------|-------------|
G-|-4---3---4---|-----------------|-------------|
D-|-0---0---0---|-----------------|-------------|
A-|-------------|-----------------|-------------|
E-|-3---2---3---|-----------------|-------------|


              C5
    |   |     |     |  |  |    |    |     |      |  |  |
E-|---------------|----------|-----------------|----------|
B-|---3-5h7p5-----|-------0--|-----------------|-------0--|
G-|-5---------7p5-|-------8--|-----------------|-------8--|
D-|-4---------5---|----------|-----------------|----------|
A-|-0---------7---|----9-----|------7h9p7------|----9-----|
E-|-----------6---|-7--------|-8-10-------10-8-|-7--------|


    |    |     |      |  |  |   
E-|-----------------|----------|
B-|-----------------|-------0--|
G-|-----------------|-------8--|
D-|-----------------|----------|
A-|------7h9p7------|----9-----|
E-|-8-10-------10-8-|-7--------|


    CVII-------------------------------\
    |            |           |
E-|------7-----7-----7-----7-----9-----7--|
B-|----8-----8-----8-----8-----8-----8----|
G-|--------------------7------------------|
D-|--------8-----9-----------8-----9------|
A-|-10------------------------------------|
E-|---------------------------------------|


    CVII-------------------------------\
    |            |           |
E-|---------------------------------------|
B-|------7-----7-----7-----7-----7-----7--|
G-|----7-----7-----7-----7-----7-----7----|
D-|--------------------7------------------|
A-|--------8-----9-----------8-----9------|
E-|-10------------------------------------|


    |           |            |
E-|-----0-----0------0-----0------0-----0-|
B-|---------------------------------------|
G-|---------------------------------------|
D-|---8-----8------8-----8------8-----8---|
A-|-------9-----10-----7------------------|
E-|-8------------------------10-----8-----|


    |  |  |     |  |  |         |  |  |    |  |     |
E-|-7-----5-7-|-10----7h8p7-5-|-7--------|----------------|
B-|-----------|---------------|----------|----7(19)-------|
G-|-----------|---------------|----------|-8--------------|
D-|-9-----7-9-|-12----9-----7-|-9--------|-9--------------|
A-|-----------|---------------|----------|-9--------------|
E-|-7---------|---------------|----------|-7--------------|


    |     |   |             |      |  |
E-|-7(19)-----5(17)-7(19)-|-10(22)----7(19)h8p7--5--|
B-|-----------------------|-------------------------|
G-|-----------------------|-------------------------|
D-|-9---------7-----9-----|-12--------9----------7--|
A-|-----------------------|-------------------------|
E-|-----------------------|-------------------------|


    |     |   |     |   |   |
E-|-7(19)-----0---|-----------||
B-|---------------|-----------||
G-|---------------|-8---------||
D-|-9---------8---|-9---------||
A-|-----------9---|-9---------||
E-|-----------8---|-7---------||

Play part 1 again then continue:

         |   |   |    |  |  |   |  |  |    |  | |   | | |
E-|----|-0----------|---------|----------|--------|-1-----|
B-|-0--|-1----------|-0-------|----------|-0------|-1---2-|
G-|----|-0-------2--|-0-------|-5--------|-0------|-2---1-|
D-|----|-2----------|-0-------|----------|--------|-------|
A-|----|-3----------|---------|-7-----9--|-10-----|-------|
E-|----|------------|-3-------|-5--------|-0------|-------|


    |  |  |    |  |  |   |  |  |
E-|-1-----0--|-0-------|----------|
B-|-1--------|---------|----0-----|
G-|-2--------|-5-------|-7--0-----|
D-|----------|-7-------|-------7--|
A-|----------|---------|-------9--|
E-|----------|-7-------|----------|


    |       |        |          |       |        |
E-|---------------------------|---------------------------|
B-|---0---0----0---0---0----0-|---0---0----0---0---0----0-|
G-|---------------------------|---------------------------|
D-|-----9---10---7---9--------|-----9---10---7---9--------|
A-|-7--------------------10---|-7--------------------10---|
E-|---------------------------|---------------------------|
    
    pizzicato-------------------------------------------/


    |         |            |
E-|-------------------------------------|
B-|-------------------------------------|
G-|---------0-----0-----0------0-----0--|
D-|-------------------------------------|
A-|-7-----7-----7-----7------7-----7----|
E-|-----8-----6-----8------6-----8------|


    |           |            |
E-|---------------------------------------|
B-|---------------------------------------|
G-|-----0-----0-----0-----0------0-----0--|
D-|---------------------------------------|
A-|---7-----7-----7-----7------7-----7----|
E-|-6-----8-----6-----8------6-----8------|


     |    |    |     |    |    |
E-|------------|-0-------------||
B-|------------|-5-------------||
G-|------------|---------------||
D-|----------------|-2-------------||
A-|----------------|---------------||
E-|--0-------------|-0-------------||
Suggest correction
Give kudos to tab author, rate the tab!
1 2 3 4 5
comments
print report bad tab
guest
You may want to rate the tab now too:
select rating
Wanna post a correction for this tab? Suggest correction