Oops, an error
Loading. Please wait.

Para Elisa Tab

version 2
version 2

Whole song

283 views 3 this week
no commentswrite comment
1 2 3 4 5
3 more votes to show rating
add to favorites
launch autoscroll
font size
0
reset
how to read this tab
guitar tuner
×
Best way to learn
"Para Elisa"
Autoscroll
slow
fast
+/-
esc
set tempo
stop
ESTA ES UNA FORMA MÁS FACIL DE TOCAR ESTA ESPECTACULAR CANCION
QUE LAS QUE YA HAY EN LACUERDA

e||--12--11--12--11--12--|------10--8------|-----------------|
B||----------------------|--12---------10--|-----9--10--12---|
G||----------------------|-----------------|--9--------------|
D||----------------------|-----------------|-----------------|
A||----------------------|-----------------|-----------------|
E||----------------------|-----------------|-----------------|

e||-----------------|--12--11--12--11--12--|------10--8------|
B||-----10--12--13--|----------------------|--12---------10--|
G||--9--------------|----------------------|-----------------|
D||-----------------|----------------------|-----------------|
A||-----------------|----------------------|-----------------|
E||-----------------|----------------------|-----------------|

e||----------------|-----------------|----------10--12--|
B||-----9--10--12--|-----13--12--10--|--12--13----------|
G||--9-------------|--9--------------|------------------|
D||----------------|-----------------|------------------|
A||----------------|-----------------|------------------|
E||----------------|-----------------|------------------|

e||-------13--12--10--|-----12--10--8--|-----10--8--7---|
B||---10--------------|--8-------------|--6-------------|
G||-------------------|----------------|----------------|
D||-------------------|----------------|----------------|
A||-------------------|----------------|----------------|
E||-------------------|----------------|----------------|

e||--12--11--12--11--12--|------10--8------|-----------------|
B||----------------------|--12---------10--|-----9--10--12---|
G||----------------------|-----------------|--9--------------|
D||----------------------|-----------------|-----------------|
A||----------------------|-----------------|-----------------|
E||----------------------|-----------------|-----------------|

e||------------------------||
B||--------13---12---10----||
G||----9-------------------||
D||------------------------||
A||------------------------||
E||------------------------||


SALU2 A TODOS EN ESPECIAL A LSO CRXZADOS DE CHILE!!!!!
Suggest correction
Give kudos to tab author, rate the tab!
1 2 3 4 5
comments
print report bad tab
guest
You may want to rate the tab now too:
select rating
Wanna post a correction for this tab? Suggest correction