Oops, an error
Loading. Please wait.

Valse Tab

version 2
version 2

Whole song

17 views 1 this week
no commentswrite comment
1 2 3 4 5
3 more votes to show rating
add to favorites
launch autoscroll
font size
0
reset
how to read this tab
guitar tuner
Autoscroll
slow
fast
+/-
esc
set tempo
stop
Help us to improve Ultimate-Guitar.com Take our survey!
×
Se toca a ritmo de 3/4


e --------0--0--------2--------2--------4--------4-----5--5-----4--2--------
B --------------2--2-----2--2-----2--2-----2--2-----2--2-----2--2-----3--3--
G --------------2--2-----2--2-----2--2-----2--2-----2--2-----2--2-----4--4--
D -----------------------------------------------------------------2--------
A -----------0-----------------0-----------------0--------------------------
E --------------------0-----------------0-----------------0-----------------


e -----------2--------4-----5--9--------7--------1-s-10---------9-7-------7-5-------------
B --------------3--3-----3--3-----9--9-----9--9--------------9-------------------5-----0--
G --------------4--4-----4--4--------------7--7----------11---------7--9------6-----------
D --------0-----------------------7--7--7-------------------------------------------------
A --2--4--------------2--------0------------------------------------------0---------0-----
E -----------------------------------------------0--------------0-------------------------


e --0--------2--------2--------4--------4--------5--------12----------10----------
B -----2--2-----2--2-----2--2-----2--2-----2--2-----2--2------12--12------12--12--
G -----2--2-----2--2-----2--2-----2--2-----2--2-----2--2------11--11------11--11--
D ---------------------------------------------------------0-----------0----------
A --0-----------------0-----------------0--------0--------------------------------
E -----------0-----------------0--------------------------------------------------


e -----------10----------9----------0--------2--------7--------5--------5--|
B --7------------10--10-----10--10-----2--2-----3--3-----9--9--5--5-----5--|
G -----7--7------10--10------9---9-----2--2-----4--4-----7--7--6-----6--6--|
D -----9--9----------------------------------------------------------------|
A ------------0----------7----------------------------7--------0--------0--|
E --7-------------------------------0--------0-----------------------------|
Suggest correction
Give kudos to tab author, rate the tab!
1 2 3 4 5
comments
print report bad tab
guest
You may want to rate the tab now too:
select rating
Wanna post a correction for this tab? Suggest correction