Oops, an error
Loading. Please wait.

Me Cansé De Tí Tab

81 views 1 this week
no commentswrite comment
1 2 3 4 5
3 more votes to show rating
add to favorites
launch autoscroll
font size
0
reset
how to read this tab
guitar tuner
×
Best way to learn
"Me Cansé De Tí"
Autoscroll
slow
fast
+/-
esc
set tempo
stop
D5   = xx7775
F#m1 = xx4222
F#m2 = xx3222
F#m3 = xx2222
F#m4 = xx1222
 ?   = x2323x


Intro:
  |-A-||-C#m7-||-D-|    |--D5-| |-A-||-C#m7-||-D-|
e|-----------------------5---------------------------------------|
B|-2/3---5.-5-----3.-------7-----2/3---5.-5-----3.----2/3--------|
G|--------------------------7-----------------------------2---2--|
D|--------------0-----4.-----7----------------0-----4-------4----|
A|-0-----4-----------------------0-----4-------------------------|
E|---------------------------------------------------------------|


A      C#m7      D  A      C#m7      D
Siéntate conmigo, ya llegó la noche y siento frío
A      C#m7         D      A      C#m7      D
quiero hablar contigo, siento que este amor ya no es el mismo.
F#m1                  F#m2
No puedo fingir una eternidad
F#m3            F#m4
de hacer el amor por sexo y nada más
      D               E
ya no quiero seguir intentando hacerte feliz.


*CORO*
Am            C
Me cansé de ti, de tu falso amar
F            E
no quiero morir, quiero respirar
Am            C
me cansé de ti, ya no puedo más
F            Fm            ?
me hiciste sufrir, te arrepentirás.


A      C#m7      D    A        C#m7          D
Fueron tantos días, desafiando al tiempo y tu ironía
A      C#m7      D    A         C#m7        D
fueron mis mañanas, tan vacías, simples, tan extrañas.
F#m1                F#m2
Por qué fuiste así, por qué te aguanté
F#m3              F#m4
aposté mi vida y me toó perder
      D               E
ya no quiero seguir intentando hacerte feliz.


*CORO*
Am            C
Me cansé de ti, de tu falso amar
F            E
no quiero morir, quiero respirar
Am            C
me cansé de ti, ya no puedo más
F            Fm
me hiciste sufrir, te arrepentirás.


Solo:
e|-----------------------------------------------------------
B|-5-3-2.---2-------------2/3--------------------------------
G|--------3---3-4.----2-4-----4-2---2-1.-2-2/4-4/6-7-4-4/6.--
D|------------------4-------------4--------------------------
A|-----------------------------------------------------------
E|-----------------------------------------------------------

e|---------2-5-----5-7-4-5.---12-12-9-10-9-7/9----------------
B|-----2-3-----3/5-----------------------------10.------------
G|-2-4---------------------------------------------9/11-9/11--
D|------------------------------------------------------------
A|------------------------------------------------------------
E|------------------------------------------------------------

e|----10-12-12/13.-12-12/10-10-10/7-7-7/5-5-5/7-5-4-------------------|
B|-10-----------------------------------------------5-----------------|
G|-----------------------------------------------------4/5-4-2-4-4/5--|
D|--------------------------------------------------------------------|
A|--------------------------------------------------------------------|
E|--------------------------------------------------------------------|


*CORO*
Am            C
Me cansé de ti, de tu falso amar
F            E
no quiero morir, quiero respirar
Am            C
me cansé de ti, ya no puedo más
F            Fm
me hiciste sufrir, te arrepentirás.
Am            C
Me cansé de ti, de tu falso amar
Dm            E
no quiero morir, quiero respirar
Am            C
me cansé de ti, ya no puedo más
F            Fm            ?
me hiciste sufrir, te arrepentirás.


                 --------
              º-| ¤    ¤ |-º
              º-|  LuïS  |-º
              º-| ¤    ¤ |-º
                 \      /
                |    |
      ·===========================·
      | luis_6cuerdas@ |
      ·===========================·


*Si hubiese algún error o alguna duda, escribe al mail o avisa por MSN*
Suggest correction
Give kudos to tab author, rate the tab!
1 2 3 4 5
comments
print report bad tab
guest
You may want to rate the tab now too:
select rating
Wanna post a correction for this tab? Suggest correction