Oops, an error
Loading. Please wait.

Adiós Tab

version 2
version 2

Whole song

21 views 1 this week
no commentswrite comment
1 2 3 4 5
3 more votes to show rating
add to favorites
×
Save as Personal and add changes to this tab that will be seen only by you. Learn more ›
×
You can save this tab as Personal to edit and correct it or add notes. All changes will be seen only by you. Learn more »
save as personal
new!
launch autoscroll
font size
0
reset
how to read this tab
guitar tuner
Autoscroll
slow
fast
+/-
esc
set tempo
stop
ADIÓS - LA OREJA DE VAN GOGH
Esta canción es la caña, me encanta y
espero que la disfrutéis tanto como yo.
Está tal y como la tocan en el DVD de la gira 2003
 ?Lo que te conté mientras te hacías la dormida?
******SIMBOLOGÍA*******************************************
/ = ligado
M = Mutado (todo el estribillo suena mutado)
/* = siguiendo la secuencia sigue haciendo
el ligado hasta que se apaga el sonido.
a = armónico
***********************************************************
             FA             LAm      FA                 LAm
E------------1--------------0--------1------------------0--
B------------1--------------1--------1------------------1--
G------------2--------------2--------2------------------2--
D------------3--------------2--------3------------------2--
A------------3--------------0--------3------------------0--
E----------------------------------------------------------
   Tengo que irme ya, Abrázame, Nada más llegar te llamaré,

        REm                  LAm       FA           SOL
E-------5--------------------0---------1------------3------
B-------6--------------------1---------1------------3------
G-------7--------------------2---------2------------4------
D-------7--------------------2---------3------------5------
A-------5--------------------0---------3------------5------
E----------------------------------------------------------
   Déjame marchar, no llores más, túmbate otra vez,

             LAm          FA                       LAm
E------------0---------------------------------------------
B------------1------------------0-1-------------------0-1--
G------------2----------------2----------------------2-----
D------------2--------------3-----------------------2------
A------------0------------3------------------------0-------
E----------------------------------------------------------
     Te dormirás. Te he dejado atrás y pienso en ti,

         FA                     LAm                REm
E----------------------------------------------------------
B--------------0-1-----------------0-1-------------5-6-----
G------------2--------------------2---------------7--------
D----------3---------------------2---------------7---------
A--------3----------------------0---------------5----------
E----------------------------------------------------------
  Oigo ?adiós amor?, caer sobre mí. Yo quiero irme de allí,

                    LAm            LA#                 FA
E----------------------------------------------------------
B------------------------0-1---------5-6-----------------1-
G----------------------2-----------7--------------------2--
D--------------------2-----------8---------------------3---
A------------------0---------------------------------------
E----------------------------------------------------------
     no  puedo escapar,        Necesito volverte a abrazar,

              LA                     RE
E----------------------------------------------------------
B--1--------------5----------------------------------------
G----2----------6---6----------------------14-------12-----
D------3------7---------------------M12-12----12-12--------
A----------------------------------------------------------
E----------------------------------------------------------
          abrazaaaaarr, (ESTRIBILLO) Veeeeeeeeeeeeeeennnnn,

                                   SIm
E----------------------------------------------------------
B----------------------------------------------------------
G-------11-------12-----11---------14-------12-------11----
D-12-12----12-12---12-12--12-12-12----12-12----12-12-------
A----------------------------------------------------------
E----------------------------------------------------------
   cálmate              no         llores     más,
                    FA#m
E----------------------------------------------------------
B----------------------------------------------------------
G------12-----11---------14-----12-----11-----12-----11-12-
D-12-12--12-12--12--11-11--11-11--11-11--11-11--11-11------
A----------------------------------------------------------
E----------------------------------------------------------
  si  cierras  los ojos verás,               que  sigo

  SOL                       LA#
E----------------------------------------------------------
B----------------------------------------------------------
G------16-----14-----12-----15-----14-----12------14-----12
D-12-12--12-12--12-12--12-12--12-12--12-12---12-12--12-12--
A----------------------------------------------------------
E----------------------------------------------------------
  junto  a   ti   y   que   no      me      iré       sin

   RE                                    SIm
E----------------------------------------------------------
B----------------------------------------------------------
G-------14-----12-----11-----12-----11--------14-----12----
D--12-12--12-12--12-12--12-12--12-12--12-12-12--12-12--12--
A----------------------------------------------------------
E----------------------------------------------------------
 Besar,                   una  de  esas  lágrimas,  que van

                          FA#m
E----------------------------------------------------------
B----------------------------------------------------------
G---11-----12-----11-----------14-----12-----11-----12--12-
D-12--12-12--12-12--12-12-11-11--11-11--11-11--11-11--11---
A----------------------------------------------------------
E----------------------------------------------------------
  desde     tu            cara   al mar,          la   vida

     SOL                       LA#
E----------------------------------------------------------
B----------------------------------------------------------
G-11------16-----14-----12-----15-----14-----12------------
D----12-12--12-12--12-12--12-12--12-12--12-12--------------
A----------------------------------------------------------
E----------------------------------------------------------
     Viene   y   va   y    se  vaaaaaaaaaaaaaaa.


  RE                LAm      SOL
E----------------------------------------------------------
B----------------------------------------------------------
G-11-11-11-11/12-12-9--------------------------------------
D------------------------5-7-9/10/9/10/9/10/9/*------------
A----------------------------------------------------------
E----------------------------------------------------------

         FA                   LAm             FA
2. Salgo del portal, quiero morir, tú en la habitación,
             LAm                 REm
llorando por mí, tú me has hecho tan feliz, que siempre
    LAm     LA#               FA              LA
estaré a tu lado, cuidando de ti, cuidando de ti.

RE              SIm
VEN, CALMATE NO LLORES MÁS,
                FA#m
SI CIERRAS LOS OJOS VERÁS,
         SOL              LA#
QUE SIGO JUNTO A TI Y QUE NO ME IRE SIN
  RE               SIm
BESAR, UNA DE ESAS LÁGRIMAS,
                 FA#m
QUE VAN DESDE TU CARA AL MAR, LA VIDA

     SOL                     LA#
E----------------------------------------------------------
B----------------------------------------------------------
G-------16-----14-----12-----15-----14-----12--------------
D--12-12--12-12--12-12--12-12--12-12--12-12----------------
A----------------------------------------------------------
E----------------------------------------------------------
     Viene   y  va  y   se   vaaaaaaaaaaaaaaa.

                                     RE
E----------------------------------------------------------
B----------------------------------------------------------
G------------------------------------------14-------12-----
D---------------------------------12-12-12----12-12--------
A----------------------------------------------------------
E----------------------------------------------------------
                                     Veeeeeeeeeeeeeeennnnn,

                               LAm
E----------------------------------------------------------
B----------------------------------------------------------
G--------11-------12------11--------12------11-----9-------
D--12-12----12-12----12-12--12-10-10---10-10--10-10--10-10-
A----------------------------------------------------------
E----------------------------------------------------------
   cálmate         no          llores     más,          si

                SOL
E----------------------------------------------------------
B----------------------------------------------------------
G-12------9----------16------14------12-------14-12--------
D---10-10---10--12-12---12-12---12-12----12-12-------------
A----------------------------------------------------------
E----------------------------------------------------------
   cierras  los ojos verás,               que  sigo aquí

       LA#
E----------------------------------------------------------
B----------------------------------------------------------
G--------15------14-----12-----14-----12-------------------
D-12-12-----12-12--12-12--12-12--12-12---------------------
A----------------------------------------------------------
E----------------------------------------------------------
 junto a tiiiiiii.

(Y ESTE ES EL SOLO FINAL)
    RE               LAm              SOL             LA#
E----------------------------------------------------------
B-------------------------------------------8/12-10-8-7-6--
G------14-12-11--12-11----12-11-9---------7----------------
D-7/12-----------------10---------12-10-9------------------
A----------------------------------------------------------
E----------------------------------------------------------

                    RE                 LAm              SOL
E----------------------------------------------------------
B----------------------------------------------------------
G--7-------------------14-12-11--12-11----12-11-9----------
D----8-10-8-8/7---7/12-----------------10---------12-10-9--
A----------------------------------------------------------
E----------------------------------------------------------

                 LA#             RE
E----------------------------------------------------------
B----8/12-10-8-7-6-----------------------------------------
G--7---------------7---------------------------------------
D--------------------8-10-8-8/7--12------------------------
A----------------------------------------------------------
E----------------------------------------------------------
                                  Na na na ra, na na nara
         LAm                            SOL
E----------------------------------------------------------
B----------------------------------------------------------
G----------------------------------------------------------
D--------10-----------------------------9------------------
A----------------------------------------------------------
E----------------------------------------------------------
  Na ra. Na na na ra, na na nara nara, Na na na ra, na na

                   LA#
E----------------------------------------------------------
B----------------------------------------------------------
G----------------------------------------------------------
D------------------8----------------------------12a--------
A----------------------------------------------------------
E----------------------------------------------------------
  na na nara nara, Na na na ra, na na nara nara, naaa.


PARA CUALQUIER DUDA, SUGERENCIA, ALABANZA, CRÍTICAS O
FANS DE LA OREJA POR FAVOR ESCRIBANME.
(dufresne_19@
Suggest correction
Give kudos to tab author, rate the tab!
1 2 3 4 5
comments
print report bad tab
guest
Wanna post a correction for this tab? Suggest correction