Oops, an error
Loading. Please wait.

Solo Un Sueño Chords

24 views 1 this week
no commentswrite comment
1 2 3 4 5
3 more votes to show rating
add to favorites
×
Save as Personal and add changes to this tab that will be seen only by you. Learn more ›
×
You can save this tab as Personal to edit and correct it or add notes. All changes will be seen only by you. Learn more »
save as personal
new!
launch autoscroll
font size
0
reset
transpose
0
reset
display chords
guitar tuner
Autoscroll
slow
fast
+/-
esc
set tempo
stop
Strumming
There is no strumming pattern for this song yet. and get +5 IQ
INTRO

Esto es casi en todos los versos

1-------10-12-10h12----7-9-7h9----3-5-3h5----5-7-5h7------
2-----10--------------7----------3----------5-------------
3---11---------------7----------4----------6--------------
4-12----------------9----------5----------7---------------


y este es el requinto

1--2--2-0-0-2--2-0---5/7--7-5-3-5-5-5-5-5-5------
2--------3---------3-----------------------------

1--2--2-0-0-2--2-0---5/7--7-10-9---7-------------
2--------3---------3-------------7---7-5-3-------

  D                     Bm
Pienso que solo es un sueño
        G        A
lindo sueño de amor
   D              Bm
y soy feliz a tu lado
         G         D
junto a ti   hay amor
  D Bm G  A
amor  uuuuuh


 D                    Bm
Linda chiquilla te quiero
     G             A
tu amor me hace feliz
D                   Bm
eres linda y eres buena
 G              A
solo pienso en ti
    D  Bm G  A
en tiiii uuuuhhh


 D      Bm
Lindo amor 
  G         A
cuanta ilusion
  D     Bm
siente ya 
 G      A
mi corazon


 D       Bm
Ven ven ven
 G           A
ven junto a mi
  D  Bm G  A
amoooor uuuhhh

INTRO


Linda chiquilla......
Suggest correction
Give kudos to tab author, rate the tab!
1 2 3 4 5
comments
print report bad tab
guest
Wanna post a correction for this tab? Suggest correction