Oops, an error
Loading. Please wait.

Desatándonos Tab

27 views 1 this week
no commentswrite comment
1 2 3 4 5
3 more votes to show rating
add to favorites
launch autoscroll
font size
0
reset
how to read this tab
guitar tuner
Autoscroll
slow
fast
+/-
esc
set tempo
stop
Help us to improve Ultimate-Guitar.com Take our survey!
×
intro:
guitarra1
e|----------------------------------------------------------------|
A|----5-----5-----5---5-----5-----5---5-----5-----5-------5-----5-|
D|------4-----4---------4-----4---------4-----4-------------4-----|
G|--7-----7-----7---6-----6-----6---7-----7-----7-------------7---|
B|----------------------------------------------------------------|
E|----------------------------------------------------------------|
mientras que la guitarra2 hace:(los tiempos estan bien)
e|-----------------------------------------------------------------|
A|-----------------------------------------------------------------|
D|-----------------------------------------------------------------|
G|--7-------7---7---6-------6---6---7-------7---7--7/9-9-9---------|
B|--5-------5---5---4-------4---4---5-------5---5--5/7-7-7---------|
E|-----------------------------------------------------------------|
guitarra1
e|------------------------------------------------------|
A|----5-----5-----5---5-----5-----5---5-----5-----5-----|
D|------4-----4---------4-----4---------4-----4---------|
G|--7-----7-----7---6-----6-----6---7-----7-----7-------|
B|------------------------------------------------------|
E|------------------------------------------------------|
guitarra2
e|------------------------------------------------------|
A|------------------------------------------------------|
D|--6-------6---6---4-------4---4---6-------6---6-------|
G|--4-------4---4---2-------2---2---4-------4---4-------|
B|------------------------------------------------------|
E|------------------------------------------------------|
desde ahora es una guitarra sola
e|------------------------|
A|------------------------|
D|--7-6-7--6-7-6-7-7-6-7--|
G|--7-6-7--6-7-6-7-7-6-7--|
B|--5-4-5--4-5-4-5-5-4-5--|
E|------------------------|

e|--------------------------------|
A|--7/10-3-7/10-3-7/10-3-3/5-3-3--|
D|--------------------------------| 2x
G|--------------------------------|
B|--------------------------------|
E|--------------------------------|

e|----------------|
A|--7/10/13-12/17b|
D|----------------|
G|----------------|
B|----------------|
E|----------------|
xxxxxxxxxxxxxxxxxxxxxxxxxxxxxxxxxxxxxxxxxxxxxxxxxxxxxxxxxxxxxxxxx
'mi biccicleta es...'
e|--------------------------------|
A|--7/10-3-7/10-3-7/10-3-3/5-3-3--|
D|--------------------------------| 2x
G|--------------------------------|
B|--------------------------------|
E|--------------------------------|

e|----------------|
A|--7/10/13-12/17b|
D|----------------|
G|----------------| 1x
B|----------------|
E|----------------|
xxxxxxxxxxxxxxxxxxxxxxxxxxxxxxxxxxxxxxxxxxxxxxxxxxxxxxxxxxxxxxxx

e|-------------------------|
A|-------------------------|
D|--5-5-5-4-4-4-4-5-5-5-4--|
G|--5-5-5-4-4-4-4-5-5-5-4--|
B|--3-3-3-2-2-2-2-3-3-3-2--|
E|-------------------------|
en el monemto que cristian canta toca la guitarra(1:39 y 1:53)hace lo mismo
e|--------------------|
A|--------------------|
D|-8-8-8-8-7-7-7-7----|
G|-8-8-8-8-7-7-7-7----|
B|-6-6-6-6-5-5-5-5----|
E|--------------------|


xxxxxxxxxxxxxxxxxxxxxxxxxxxxxxxxxxxxxxxxxxxxxxxxxxxxxxxxxxxxxxxx
e|--------------------------------|
A|--7/10-3-7/10-3-7/10-3-3/5-3-3--|
D|--------------------------------| 1x
G|--------------------------------|
B|--------------------------------|
E|--------------------------------|

e|-------------------------------------------------|
A|--7/10/13-12/15-12-1212--10-12-10-8-10-8--15/17b-|
D|-------------------------------------------------|
G|-------------------------------------------------| 1x
B|-------------------------------------------------|
E|-------------------------------------------------|
xxxxxxxxxxxxxxxxxxxxxxxxxxxxxxxxxxxxxxxxxxxxxxxxxxxxxxxxxxxxxxx
'cuantas veces...'
e|------------------------------------------------|
A|------------------------------------------------|
D|--2-2-xx-4-4-xx-6-6-xx-7-7-xx-6-6-xx-4-4-xx-2-2-|
G|--2-2-xx-4-4-xx-6-6-xx-7-7-xx-6-6-xx-4-4-xx-2-2-|
B|--0-0-xx-2-2-xx-4-4-xx-5-5-xx-4-4-xx-2-2-xx-0-0-|
E|------------------------------------------------|

e|--------------------------------|
A|--------------------------------|
D|--------------------------------|
G|--------------------------------|
B|-9-10-9-10/12-10-9-10-9-7-9-7-5-|
E|--------------------------------|

e|---------------------------|
A|---------------------------|
D|--2-2-xx-4-4-xx-6-6-xx-7-7-|
G|--2-2-xx-4-4-xx-6-6-xx-7-7-|
B|--0-0-xx-2-2-xx-4-4-xx-5-5-|
E|---------------------------|

e|--------------------------------------------------------------------|
A|--------------------------------------------------------------------|
D|--------------------------------------------------------------------|
G|--------------------------------------------------------------------|
B|7-7-9-9-10-10-1212121212--12-10 9999---10-10-10-10-10-12-10-9-10-9-7|
E|--------------------------------------------------------------------|
xxxxxxxxxxxxxxxxxxxxxxxxxxxxxxxxxxxxxxxxxxxxxxxxxxxxxxxxxxxxxxxxxx
final
e|-----|
A|-----|
D|--5--|
G|--5--|
B|--3--|
E|-----|


ahora va la letra:

desatandonos al viento
comunicando sentidos
7 fuertes de hierro

isaremosooooooooohhhh

mi bicicleta es un caballo 
de metal que me lleva
atravensando fronteras

y quien ooooooooooooooohhhh

dare un salto gigante
hasta poder alcansarte
dere un salto aun mas grande
hasta poder olvidarte

cada bando violenta
el metal que me lleva
atravesando froteras

y quien ooooooooooooooohhhh

 cuantas veces(....)
nunca es suficiente
ni aunque sea el oceano oooooo

ooooooooooooooooohhhhhhhhhh
eeeeeehhhhhhhh


aclaracion: las notas que estan 
para la 2guitarra estan perfectamente a tiempoy cuando hay una linea larga 
de xxxxx es por que esta el estribillo (que no se toca nada)


Eso es todo, para comentarios, pedidos, puteadas, correccion etc. 
mandenmen un mail a gustavomenin@
Suggest correction
Give kudos to tab author, rate the tab!
1 2 3 4 5
comments
print report bad tab
guest
You may want to rate the tab now too:
select rating
Wanna post a correction for this tab? Suggest correction