Oops, an error
Loading. Please wait.

Desatándonos Bass Tab

19 views 1 this week
no commentswrite comment
1 2 3 4 5
3 more votes to show rating
add to favorites
launch autoscroll
font size
0
reset
guitar tuner
Autoscroll
slow
fast
+/-
esc
set tempo
stop
Help us to improve Ultimate-Guitar.com Take our survey!
×
INTRO
F|---------------------------------------------------|
C|---------------------------------------------------|
G|------9----9--------9--9---------9---9----9----9---|
D|-7-7-7--7-7--7-6-6-6--6--6-7-7-7--7-7--7/9--9-9--9-|

F|---------------------------------------------------------|
C|---------------------------------------------------------|
G|---------9------9----------9----9------------9------9----|
D|-11-11-11--11-11--11--9-9-9--9-9--9--11-11-11--11-11--11-|

F|----------------------------------------|
C|----------------------------------------|
G|----------------------------------------|
D|-12-12-11-12-11-12-11-12-12-11-12-11-12-|

VERSO
F|---------------------------------------------|
C|---------------------------------------------|X3
G|--6-7-6-7-------4-7-4-----4-4----------------|
D|-5--------4-4-4-------2-2-----2--4-4-7-4-4-5-|

CORO
F|----------------------------------------------------------------|
C|----------------------------------------------------------------|
G|----------------------------------------------------------------|
D|-0-2-4--5-5-5-7-5-5-5-4-4-4-5-4-4-4-2-2-2-4-2-2-2-4-4-4-5-4-4-4-|

F|-----------------------------------------------------------|
C|-----------------------------------------------------------|
G|-----------------------------------------------------------|
D|-5-5-5-7-5-5-5-4-4-4-5-4-4-4-2-2-2-7-2-2-2-4-4-4-7-4-7-4-5-|

PUENTE
F|------------------------------------|
C|------------------------------------|
G|------------------------------------|
D|-10-10-10-9--9-9-9-10-10-10-9--9-9/-|

F|------------------------------------------------------------|
C|------------------------------------------------------------|
G|------4----4---------5----5---------7----7---------7-----7--|X4
D|-5-5-5--5-5--5--5-5-5--5-5--5--5-5-5--5-5--5--4-4-4--4-4--4-|

INTERLUDIO
F|---------------------------------------------------------------|
C|---------------------------------------------------------------|
G|-5-5-5-5-5-5-5-5-5-5-4-4-5-5-7-7-9-9-9-9-9-9-9-9-9-9-9-9-9-9-9-|
D|---------------------------------------------------------------|

F|-------------------------------------------------------------------|
C|-------------------------------------------------------------------|
G|-5-5-5-5-5-5-5-5-5-5-4-4-5-5-7-7-9-9-9-9-9-9-9-9-11-11-11-11-11-11-|
D|-------------------------------------------------------------------|

F|-------------------------------------------------------------------|
C|-------------------------------------------------------------------|
G|-5-5-5-5-5-5-5-5-5-5-4-4-5-5-7-7-9-9-9-9-9-9-9-9-11-11-11-11-12-12-|
D|-------------------------------------------------------------------|

F|-------------------------------------------------------------------------
C|-------------------------------------------------------------------------
G|-5-5-5-5-5-5-5-5-5-5-4-4-5-5-7-7-9-9-9-9-11-11-11-11-12-12-12-12-14-12-14
D|-------------------------------------------------------------------------

2º y 3º CORO
F|---------------------------------------------------------------|
C|---------------------------------------------------------------|
G|---------------------------------------------------------------|
D|-0-2-4-5-5-5-7-5-5-5-4-4-4-5-4-4-4-2-2-2-4-2-2-2-4-4-4-5-4-4-4-|

F|--------------------------------------------------------------|
C|--------------------------------------------------------------|
G|------7----7---------7----7---------4----4--------------------|
D|-5-5-5--5-5--5--4-4-4--4-4--4--2-2-2--2-2--2--4-4-4-7-4-7-4-5-|

4º CORO
F|--------------------------------------------------------------|
C|--------------------------------------------------------------|
G|------7----7---------7----7---------4----4--------------------|
D|-5-5-5--5-5--5--4-4-4--4-4--4--2-2-2--2-2--2--4-4-4-7-4-7-4-5-|

F|-----------------------------------------------------------|
C|-----------------------------------------------------------|
G|------5-5/7-5-------5-5/7-5-------4---4--------------------|
D|-5-5-5--------4-4-4---------2-2-2--2-2--2--4-4-4-7-4-7-4-5-|

ORDEN
INTRO
VERSO
1ºCORO
VERSO
2ºCORO
PUENTE
VERSO
3ºCORO
INTERLUDIO
4ºCORO

bueno gente aca les dejo el bajo de esta increible cancion
aguante el otro yo carajo
cualkier duda, puteadas... ya saben
saludos para salta
Suggest correction
Give kudos to tab author, rate the tab!
1 2 3 4 5
comments
print report bad tab
guest
You may want to rate the tab now too:
select rating
Wanna post a correction for this tab? Suggest correction