Oops, an error
Loading. Please wait.

No Volveré Tab

version 1
version 1

Whole song

Interactive

1,233 views 33 this week
no commentswrite comment
1 2 3 4 5
2 more votes to show rating
add to favorites
launch autoscroll
font size
0
reset
how to read this tab
guitar tuner
Autoscroll
slow
fast
+/-
esc
set tempo
stop
Help us to improve Ultimate-Guitar.com Take our survey!
×
Esto es el intro y solo de la cancion.
Nota:  *** estas tres notitas son tocadas de fondo.

                                                     ***
----------/-----------------/-------------------/-------------
----------/-----------------/-------------------/-------------
----------/-----------------/-------------------/-------------
-------5--/---5-5--4-4--2-2-/--------2---4-4-4--/-------------
--2-------/-----------------/--3--5-------------/--3--4--5----
----------/-----------------/-------------------/-------------

                                    ***
----------------/--------------/-----------/-----------------
----------------/--------------/-----------/-----------------
----------------/--------------/-----------/-----------------
--4-4--2-2------/------------2-/-----------/--2--4--5--------
------------5-5-/---2--3--5----/--5--4--3--/-----------3-----
----------------/--------------/-----------/-----------------


----------------/
----------------/
----------------/
--2--4--5-------/
------------2---/
----------------/


Esta es la segunda parte del intro.

----------/-----------------/---------------------/-------------
----------/-----------------/---------------------/-------------
----------/-----------------/---------------------/-------------
-------5--/---5-5--4-4--2-2-/--------2---4-4-2--4-/-------------
--2-------/-----------------/--3--5---------------/--3--4--5----
----------/-----------------/---------------------/-------------


----------------/--------------/-----------/-----------------
----------------/--------------/-----------/-----------------
----------------/--------------/-----------/-----------------
--4-4--2-2------/------------2-/-----------/--2--4--5--------
------------5-5-/---2--3--5----/--5--4--3--/-----------3-----
----------------/--------------/-----------/-----------------


----------------/
----------------/
----------------/
--2--4--5-------/
------------2---/
----------------/


Espero que les guste, cualquier cosa escribanme.
Gracias.
10 de diciembre del 2009
Suggest correction
Give kudos to tab author, rate the tab!
1 2 3 4 5
comments
print report bad tab
guest
You may want to rate the tab now too:
select rating
Wanna post a correction for this tab? Suggest correction