Oops, an error
Loading. Please wait.

Yo Viviré Bass Tab

32 views 1 this week
no commentswrite comment
1 2 3 4 5
3 more votes to show rating
add to favorites
launch autoscroll
font size
0
reset
guitar tuner
Autoscroll
slow
fast
+/-
esc
set tempo
stop
Help us to improve Ultimate-Guitar.com Take our survey!
×
intro
G|---------------------------------|
D|---------------------------------|
A|---------------------------------|
E|--5--5/10--103--3/8--81--1/6--6--|


riff principal (se repite durante toda la cancion)
G|--------------------------------------------------------------|
D|--------------------------------------------------------------|
A|--------------4-5--5-5--5-7-9-10--10-10--10-93--3-3--3-2-0----|
E|--5--5-5--5-7-----------------------------------------------1-|

G|---------------------------------------------------------------|
D|---------------------------------------------------------------|
A|----------0-1--1-1--1-0-----------2/7--7-----------------------|
E|-1-1--1-3---------------0--------------------------------------|
Suggest correction
Give kudos to tab author, rate the tab!
1 2 3 4 5
comments
print report bad tab
guest
You may want to rate the tab now too:
select rating
Wanna post a correction for this tab? Suggest correction