Oops, an error
Loading. Please wait.

Te Vas A Acordar De Mí Tab

version 1
version 1

Whole song

Interactive

616 views 6 this week
no commentswrite comment
1 2 3 4 5
3 more votes to show rating
add to favorites
launch autoscroll
font size
0
reset
how to read this tab
guitar tuner
×
Best way to learn
"Te Vas A Acordar De Mí"
Autoscroll
slow
fast
+/-
esc
set tempo
stop
1-0-0-0---------------------------------------------
2-1-1-1--3-1-3h5-3-1-3h1---1-3h5-3-1-3-1------------
3--------4---------------2--------------------------
4---------------------------------------------------
5---------------------------------------------------
6---------------------------------------------------

1--8-5-------------3---------------------------------
2-8----8-5-3-1-3-5---5-3-1---5-5-3-------------------
3--------------------------2-------------------------
4---------------------------------------------------
5---------------------------------------------------
6---------------------------------------------------

C                  G
Te vas a acordar de mi,
Am                        F
se muy bien que me extrañaras,
      C                    Dm
cuando la luna ilumine tus ojos,
            G
en su obscuridad.

 C                        G
Cuando escuches esta cancion,
Am                  F
que nace de mi corazon,
          C
vas a pensar con horror,
G                   Am
en lo grave de tu error.

              C                   G
Cuando otros labios toquen tus labios
Am             F
tu me vas a comparar,
    C
todo sera diferente
Dm                G
tu misma lo comprobaras.

        F                  G
Y mis palabras de amor la luna
     Am              G7
a tus oidos dira una a una
          F                   Fm
Entonces vas a llorar y te arrepentiras
  C            Dm              G
de dejarme asi medio moribundo por ti.

              C                 G
Cuando otras manos toquen tu cuerpo
  Am            F
y cuando te hagan el amor
         C
todo sera diferente,
 Dm                  G
pues nadie sera como yo.


   F                       G
Y mis palabras de amor la Luna
  Am                  G7
a tus oidos dira una a una
         F                   Fm
Entonces vas a llorar y te arrepentiras
   C           Dm              G
de dejarme asi medio moribundo por ti
C                   G
Te vas a acordar de mi
C                G
Te vas a acordar de mi.
Suggest correction
Give kudos to tab author, rate the tab!
1 2 3 4 5
comments
print report bad tab
guest
You may want to rate the tab now too:
select rating
Wanna post a correction for this tab? Suggest correction