Oops, an error
Loading. Please wait.

Tú, Garfunkel Tab

91 views 3 this week
no commentswrite comment
1 2 3 4 5
3 more votes to show rating
add to favorites
×
Save as Personal and add changes to this tab that will be seen only by you. Learn more ›
×
You can save this tab as Personal to edit and correct it or add notes. All changes will be seen only by you. Learn more »
save as personal
new!
launch autoscroll
font size
0
reset
how to read this tab
guitar tuner
Autoscroll
slow
fast
+/-
esc
set tempo
stop
En toda la canción toca sólo 3 acordes:
LA maj7,MI y FA#menor(éste último con las 2 primeras
al aire, no sé el nombre exacto del acorde)
---  --- -0-
-0-  -4- -2-
-2-  -4- -2-
-1-  -2- -1-
-2-  -0- -0-
-0-  --- -0-


Estrofa:"desmemoriado quiero estar..."

----------------------0----------------
-0----4----------------2-----2---------
-2------4-----4---------2---2----------
-1--------2--2-----------2~0-----------
-2----------0-------------------0------
-0-----------------------------0-------

Puente: "Quema la memoria..."
----------------------0---------------------0------------
--4------------0------2------4------------0-2------------
--4-----------4-------2------4----------4---2------------
--2----------2--------1------2--------2-----1------2~0---
--0-0-0-0-0-----------0------0-0-0-0-0------0----2~0-----
----------------------0---------------------0--2~0-------
(el primero de estos arpegios no está completo,no consigo
saber exactamente qué hace)


Estrofa:"te mereces mi consenso..."

----------------------0----------------
-0----4----------------2-----2---------
-2------4-----4---------2---2----------
-1--------2--2-----------2~0-----------
-2----------0-------------------0------
-0-----------------------------0-------


Cuando llega a "quema la memoria..." otra vez, deja los arpegios
para tocar los mismos acordes,marcando el ritmo hasta el final.
Suggest correction
Give kudos to tab author, rate the tab!
1 2 3 4 5
comments
print report bad tab
guest
Wanna post a correction for this tab? Suggest correction