Oops, an error
Loading. Please wait.

La Canción Del Pirata Tab

version 3
version 3

Whole song

142 views 3 this week
no commentswrite comment
1 2 3 4 5
3 more votes to show rating
add to favorites
launch autoscroll
font size
0
reset
how to read this tab
guitar tuner
Autoscroll
slow
fast
+/-
esc
set tempo
stop
Help us to improve Ultimate-Guitar.com Take our survey!
×
Esta canción está bien chida, una de mis favoritas de esta banda ^^

  A ... ... ... ... ... ... ... ... ... ... ... ... ... ...
G|------9-7----7-------9-7----7-------9-7---------7-7/9---|
D|-7h10-----10----7h10-----10----7h10-----10-9-10---------|

  A ... ... ... ... ... ... ... F ... G ... A ... ... ...
G|------9-7----7-------9-7----7---------7-----------------|
D|-7h10-----10----7h10-----10----7h9-10---10-9-10-9-7~~---|

Se repite lo de arriba ^

A
Con diez cañones por banda
Viento en popa a toda vela
F                     G
No corta el mar si no vuela
C              G
Un velero bergantín

A ...   ...   ...   ...
Bajel pirata que llaman
...   ...   ...   ...
Por su brabura el temido
F                  G
En todo el mar conocido
C                  G
Del uno al otro confín

  A ... ... ... ... ... ... ... ... ... ... ... ... ... ...
G|------9-7----7-------9-7----7-------9-7---------7-7/9---|
D|-7h10-----10----7h10-----10----7h10-----10-9-10---------|

  A ... ... ... ... ... ... ... F ... G ... A ... ... ...
G|------9-7----7-------9-7----7---------7-----------------|
D|-7h10-----10----7h10-----10----7h9-10---10-9-10-9-7~~---|

A
La luna en el mar riela
Y en la lona gime el viento
F                    G
Y alza en blando movimiento
C                 G
Olas de plata y azul

A ...   ...   ...   ...
Y ve el capitán pirata
  ...   ...   ...   ...
Cantando alegre en la popa
F                       G
Asia a un lado, al otro Europa
C                       G
Y allá a su frente Estambul

  A ... ... ... ... ... ... ... ... ... ... ... ... ... ...
G|------9-7----7-------9-7----7-------9-7---------7-7/9---|
D|-7h10-----10----7h10-----10----7h10-----10-9-10---------|

  A ... ... ... ... ... ... ... F ... G ... A ... ... ...
G|------9-7----7-------9-7----7---------7-----------------|
D|-7h10-----10----7h10-----10----7h9-10---10-9-10-9-7~~---|

F             G
Navega velero mío
C                          G
Sin temor que ni enemigo navío
A                  G
Ni tormenta ni bonanza
                     F       G
Tu rumbo a torcer alcanza
Ni a sujetar tu valor

D                   C
Veinte presas hemos hecho
A#               A       A#-C
A despecho del inglés
D                    C
Y han rendido sus pendones
A#                  A     A#-C
Cien naciones a mis pies

D ... ... ... ... ... C ... ...
Que es mi barco mi tesoro
A# ... ... ... ... A ...   A#-C
Que es mi dios mi libertad
D ... ... ... ... ... C ... ...
Mi ley la fuerza y el viento
A# ... ... ... ...  A ... ... ...
Mi única patria la mar

B|------------------------------------------8--101010-|
G|-777-9-7-9-10-9-7-9-7----777-9-7-9-10-9-7-----------|
D|----------------------10----------------------------|

B|-11-10-8-10-8----8-----------------------------------------|
G|--------------10---10-9-10-9-7-9-7----7-9-10-9-7----7-9-10-|
D|-----------------------------------10------------10--------|
Esto se repite ^

2:20 Solo

D                     A#
Allá muevan feroz guerras
C                                  A
Ciegos reyes, por un palmo más de tierra
D                      A#
Que yo tengo aquí por mío
                       C      A
Cuanto abarca el mar bravío
A quien nadie impuso leyes

D                      C
Y no hay playa sea cualquiera
A#                  A      A#-C
Ni bandera de esplendor
D                  C
Que no sienta mi derecho
A#                 A    A#-C
Y de pecho a mi valor

D ... ... ... ... ... C ... ...
Que es mi barco mi tesoro
A# ... ... ... ... ...A ...  A#-C
Que es mi dios mi libertad
D ... ... ... ... ... C ... ...
Mi ley la fuerza y el viento
A# ... ... ... ...  A ... ... ...
Mi única patria la mar

  A ... ... ... ... ... ... ... ... ... ... ... ... ... ...
B|------10-8----8-------10-8----8-------10-8---------8-8/10---|
G|-7h10-----10-----7h10------10-----7h10------10-9-10---------|

  A ... ... ... ... ... ... ... F ... G ... A ... ... ...
B|------10-8----8-------10-8----8---------8-----------------|
G|-7h10-----10-----7h10-----10-----7h9-10---10-9-10-9-7~~---|


 A#            C             D
B|-----------8-------------------------------------|
G|-7h9h10~------10--9~---/10--9---7~---------------|
Suggest correction
Give kudos to tab author, rate the tab!
1 2 3 4 5
comments
print report bad tab
guest
You may want to rate the tab now too:
select rating
Wanna post a correction for this tab? Suggest correction