Oops, an error
Loading. Please wait.

Te Tomaré Una Foto Tab

98 views 1 this week
no commentswrite comment
1 2 3 4 5
3 more votes to show rating
add to favorites
launch autoscroll
font size
0
reset
how to read this tab
guitar tuner
×
Best way to learn
"Te Tomaré Una Foto"
Autoscroll
slow
fast
+/-
esc
set tempo
stop
bueno esta es  mi  primera  trascripción y  espero  que les guste?
nose si esta 100%  correcta  pero se escucha  muy bien y esta en el
mismo  tono de la voz de tiziano  ferro ya que la saque con  videos
de el cantando en vivo donde enfocan bastante tiempo al guitarrista?
alguna duda o correcion:
  j_tellotapia@

Cuenca - Ecuador?

Dedicada a; LoS TrEs MoSqUeTeRoS, EL TRIPODE y La MorenA?


Esta parte se canta a acapela:

Recordaré por siempre aun si no querrás
Me casaré contigo no te lo esperas mas
Te he buscado y te he encontrado, todo en un solo rato
Y por la ansia de perderte te tomaré una foto

INTRO:

e|---------------------------|-----------------------------|
B|-----------3---------3-----|--------Xh1-----------Xh1----|
G|-------x-----x-----x---x---|------x-----x-------x-----x--|
D|----x---------x--x-------x-|---2---------2---2---------2-|
A|---------------------------|-3-------------3-------------|
E|--3------------3-----------|-----------------------------|


e|-------------------------------|-------------------------------|
B|------------3-----------3------|---------Xh1------------X------|
G|---------x----x-------x---x----|------x-----x--------7----x----|
D|------x---------x----x------x--|----2---------2----7--------7--|
A|---5--------------5------------|--3-------------3h5------------|
E|-------------------------------|-------------------------------|

Empieza la cancion:

   Recordaré  por siempre y sé que no querrás
e|----------------------------|----------------------------------|
B|---------3------------3-----|-------------Xh1-----------Xh1----|
G|------x----x--------x---x---|-----------x-----x-------x-----x--|
D|----x-------x-----x-------x-|--------2---------2---2---------2-|
A|----------------------------|------3-------------3-------------|
E|--3-------------3-----------|----------------------------------|

    Te llamaré porque    tú no contestaras
e|------------------------------|---------------------------------|
B|-----------3-----------3------|---------Xh1------------Xh1------|
G|---------x---x-------x---x----|------x-----x--------x------x----|
D|------x--------x----x------x--|----2---------2----2----------2--|
A|---5-------------5------------|--3-------------3----------------|
E|------------------------------|---------------------------------|

   Ahora me hace reír pensarte como un juego
e|---------------------------|-----------------------------|
B|-----------3---------3-----|--------Xh1-----------Xh1----|
G|-------x-----x-----x---x---|------x-----x-------x-----x--|
D|----x---------x--x-------x-|---2---------2---2---------2-|
A|---------------------------|-3-------------3-------------|
E|--3------------3-----------|-----------------------------|

    Te perdí y entonces ya te tomo otra foto            Por que
e|-------------------------------|-------------------------------|
B|------------3-----------3------|---------Xh1------------X------|
G|---------x----x-------x---x----|------x-----x--------7----x----|
D|------x---------x----x------x--|----2---------2----7--------7--|
A|---5--------------5------------|--3-------------3h5------------|
E|-------------------------------|-------------------------------|

    escaparías pequeña ahora desde mi mano                   Y un
e|----------------------------------|-----------------------------|
B|---------3---------------3--------|--------Xh1-----------Xh1----|
G|-------x---x---------x--------x---|------x-----x-------x-----x--|
D|----x--------x----x-------------x-|---2---------2---2---------2-|
A|----------------------------------|-3-------------3-------------|
E|--3-------------3-----------------|-----------------------------|

   día se transformará veloz en  un   año                 Y te ol...
e|----------------------------------|-------------------------------|
B|---------3---------------3--------|--------Xh1-----------X--------|
G|-------x---x---------x--------x---|------x-----x-------7---x------|
D|----x--------x----x-------------x-|---2---------2----7-------7----|
A|--5------------5------------------|-3-------------3h5-------------|
E|----------------------------------|-------------------------------|

?..viiiiiiiiiiiiiiiiiiiiiiiiiiiiiidaras de mí             cuando
e|----------------------------------|-----------------------------|
B|---------3---------------3--------|--------Xh1-----------Xh1----|
G|-------x---x---------x--------x---|------x-----x-------x-----x--|
D|----x--------x----x-------------x-|---2---------2---2---------2-|
A|----------------------------------|-3-------------3-------------|
E|--3-------------3-----------------|-----------------------------|


  llueve,perfiles y casas recuerdan a ti                    Y ser?
e|------------------|----------------|------------------------------|
B|---------xh8------|-------x--------|-------xh1------------x-------|
G|------9------9----|-----7----7-----|-----x-----x--------7----x----|
D|----9----------9--|---7---------7--|---2---------2----7--------7--|
A|--7---------------|-5--------------|-3-------------3h5------------|
E|------------------|----------------|------------------------------|

  ?áaaaaaaaaaaaaaaaaaaaaa      hermosísimo                    Por ti?.
e|----------------------------------|-----------------------------|
B|---------3---------------3--------|--------Xh1-----------Xh1----|
G|-------x---x---------x--------x---|------x-----x-------x-----x--|
D|----x--------x----x-------------x-|---2---------2---2---------2-|
A|----------------------------------|-3-------------3-------------|
E|--3-------------3-----------------|-----------------------------|

   tienen un solo  sabor  alegría  y    dolor                 Quisi?
e|------------------|----------------|------------------------------|
B|---------xh8------|-------x--------|-------xh1------------x-------|
G|------9------9----|-----7----7-----|-----x-----x--------7----x----|
D|----9----------9--|---7---------7--|---2---------2----7--------7--|
A|--7---------------|-5--------------|-3-------------3h5------------|
E|------------------|----------------|------------------------------|

 ?era    solo que ahora pueda   pronto   irse    esta?..
e|---------------------|---------------------------------|
B|--------3---------3--|-------xh1-------------xh1-------|
G|------4--4------4----|-----x----x----------x-----x-----|
D|----4-----4---4------|---2---------2----2----------2---|
A|--2---------2--------|-3-------------3-----------------|
E|---------------------|---------------------------------|

?..noche     Y lo que  siempre me dijiste nunca  más  re?
e|---------------------|---------------------------------|
B|--------3---------3--|-------xh1-------------xh1-------|
G|------4--4------4----|-----x----x----------x-----x-----|
D|----4-----4---4------|---2---------2----2----------2---|
A|--2---------2--------|-3-------------3-----------------|
E|---------------------|---------------------------------|

  ?.grese       Y  quiero  amor  y    todo lo que siempre sabes
e|----------------------------------|-----------------------------|
B|---------3---------------3--------|--------Xh1-----------Xh1----|
G|-------x---x---------x--------x---|------x-----x-------x-----x--|
D|----x--------x----x-------------x-|---2---------2---2---------2-|
A|----------------------------------|-3-------------3-------------|
E|--3-------------3-----------------|-----------------------------|

? darme          Y quiero         indiferencia si solo querrás   herirme?
e|----------------------------------|-----------------------------|
B|---------3---------------3--------|--------Xh1-----------Xh1----|
G|-------x---x---------x--------x---|------x-----x-------x-----x--|
D|----x--------x----x-------------x-|---2---------2---2---------2-|
A|--5------------5------------------|-3-------------3-------------|
E|----------------------------------|-----------------------------|


En este punto empieza el rasgado?.

C9
Em -3-
Bm -3-
Gm -0-
Dm -2-
Am -3-
Em -x-

Csus

Em -3-
Bm -3-
Gm -5-
Dm -5-
Am -3-
Em -x-


G - C9 / E-D-C9

    G                         C9
   Reconocí tu mirada en otra semejante
    G                                  Csus
   Aun si estuvieras aquí te sentiría distante
     G                              Csus
   Y para ser más honesto me siento muy pequeño
     E                D               G
   Mi pesadilla mas grande mi enorme sueño
       B                                 Csus
   Somos hijos de mundos distintos de misma memoria
       B                             Csus
   Que ingenua dibuja y borra la misma historia

         G       C9
   Y te olvidaras de mí
            E                 D             Csus
   Cuando llueve, perfiles y casas recuerdan a ti
        G       C9
   Y será hermosísimo
           Em                D             Csus
   Por ti tienen un solo sabor alegría y dolor
        B
   Quisiera
                   Csus                    B
   Solo que ahora pueda pronto irse esta noche
                     Csus                    G
   Y lo que siempre me dijiste nunca más regrese
                    Csus                       E
   Y quiero amor y todo lo que siempre sabes darme
      D          G
   Y quiero indiferencia si solo querrás herirme

     F
   No bastará el recuerdo
  G               D         G  -  C9
   Ahora quiero tu regresoooo    na.. na nana
           E          D          C9
   Nana na na..ná na..ná na..ná  nana..aaa

En esta parte solo el principio es cantada con el arpegio.

   llueve,perfiles y casas recuerdan a ti
e|------------------|----------------|------------------------------|
B|---------xh8------|-------x--------|-------xh1------------x-------|
G|------9------9----|-----7----7-----|-----x-----x--------7----x----|
D|----9----------9--|---7---------7--|---2---------2----7--------7--|
A|--7---------------|-5--------------|-3-------------3h5------------|
E|------------------|----------------|------------------------------|

  Y  seraaaaaaaa                    hermosísimo               Por ti...
e|-------------------------------------|-----------------------------|
B|------------3---------------3--------|--------Xh1-----------Xh1----|
G|----------x---x---------x--------x---|------x-----x-------x-----x--|
D|-------x--------x----x-------------x-|---2---------2---2---------2-|
A|-------------------------------------|-3-------------3-------------|
E|-----3-------------3-----------------|-----------------------------|

   tienen un solo  sabor alegría y     dolor
e|------------------|----------------|------------------------------|
B|---------xh8------|-------x--------|-------xh1------------x-------|
G|------9------9----|-----7----7-----|-----x-----x--------7----x----|
D|----9----------9--|---7---------7--|---2---------2----7--------7--|
A|--7---------------|-5--------------|-3-------------3h5------------|
E|------------------|----------------|------------------------------|

Acaba y en seguida comienza el razgado.

     B
   Quisiera
                   Csus                    B
   Solo que ahora pueda pronto irse esta noche
                     Csus                    G
   Y lo que siempre me dijiste nunca más regrese
                    Csus                       E
   Y quiero amor y todo lo que siempre sabes darme
      D          C9                        (G)
   Y quiero indiferencia si solo querrás herirme
                  C9*                     G*
   Y quiero indiferencia si solo querrás herirme..


FIN
Suggest correction
Give kudos to tab author, rate the tab!
1 2 3 4 5
comments
print report bad tab
guest
You may want to rate the tab now too:
select rating
Wanna post a correction for this tab? Suggest correction