Oops, an error
Loading. Please wait.

El Niño Sin Amor Bass

by El Tri
66 views 1 this week
no commentswrite comment
1 2 3 4 5
3 more votes to show rating
add to favorites
launch autoscroll
font size
0
reset
guitar tuner
×
Best way to learn
"El Niño Sin Amor"
Autoscroll
slow
fast
+/-
esc
set tempo
stop
hey aki con otra rola ahora del tri
espero les agrede mi bajo

PATRON 1
EL NACIO QUE SE YO...
g---------------------------------------------SE REPITE
d---------------------------------------------3 VECES
a-----------------------3--3-3-3-2-6--6-6-6-6-Y CONTINUA
e-3--3-3-3-3-6--6-6-6-6-----------------------

G---------------------------------------------
d---------------------------------------------
a----------3-5--5-5-3------------3-5--5-5-3---
e-3--3-3-6------------6-3--3-3-6------------6-

SE REPITE EL PATRON 1

PATRON 2
AL FINAL DEL CALLEJON...


g---------------------------------------------SE REPITE
d---------------------------------------------3 VECES
a-----------------------3--3-3-3-2-6--6-6-6-6-Y CONTINUA
e-3--3-3-3-3-6--6-6-6-6-----------------------

G---------------------------------------------SE REPITE 2
d---------------------------------------------VECES
a----------3-5--5-5-3------------3-5--5-5-3---
e-3--3-3-6------------6-3--3-3-6------------6-

SE REPITE PATRON 1
SE REPITE PATRON 2

FINAL

g---------------------------------------
d---------------------------------------
a-------5---------------5---------------
e-3-------------3-3-6-3----------3------

bueno esa es toda la rola disfrutenla
saludos a mi banda y mis fans
te kiero fany
Suggest correction
Give kudos to tab author, rate the tab!
1 2 3 4 5
comments
print report bad tab
guest
You may want to rate the tab now too:
select rating
Wanna post a correction for this tab? Suggest correction