Oops, an error
Loading. Please wait.

Llegaste Tú Chords

version 2
version 2

Whole song

296 views 3 this week
no commentswrite comment
1 2 3 4 5
1 last vote to show rating
add to favorites
launch autoscroll
font size
0
reset
transpose
0
reset
simplify chords
display chords
guitar tuner
×
Best way to learn
"Llegaste Tú"
Autoscroll
slow
fast
+/-
esc
set tempo
stop
Ke pEx!! BandA!!! aki les dejo esta rolota de Jesse y Joy
ke la vdd es la version 100% correkta los vi tokandola
bueno la vi a joy por ke joy es la ke toka los akordes jeje ;p
espero y les guste aki les dejo los akordes korrectos xD

Esta kancion va especialmente dedikada para
ALEJANDRA DIAZ de LOPEZ LA AMO Y ES TODO PARA MI!!
TE AMO MI VIDA!!!!!xD


Acordes:

C  C1  C2  Em  Dm  D#m  Am7  G

0   0  0   7    5   6    0   3
1   6  8   8    6   7    1   3
0   0  0   9    7   8    0   4
2   7  9   9    7   8    2   5
3   8  10  7    5   6    0   5
0   0  0   0    0   0    0   3

C
Hundida yo estaba, ahogada en soledad

Em                                   D#m
Mi corazón lloraba de un vacío total

Dm                           C1
Todo lo intenté por donde quiera te busqué

     Am7               G
Eras tú mi necesidad.

C
Triste y desolada ya no pude soportar

Em                                     D#m
Más desesperada era imposible de estar

Dm                          C1
Todo lo intenté por donde quiera te busqué

     Am7
Eras tú mi necesidad

C1             C2
Alcé mi rostro y...


Coro:

          C            C2
Llegaste tú y todo cambio

          C                   C2
Llegaste tú, la esperanza triunfó

          Dm             G
Llegaste tú uuuu uuuu uu u,  volví a nacer.


Intermedio:

e-----------------------
B-------13/15-13--------
G-12/17-----------12----
D--------------------12-
A-----------------------
E-----------------------


C
Por tanto tiempo quise encontrar la solución

Em                                         D#m
a ese gran vacío que llevaba en mi interior

Dm                           C1
Todo lo intenté por donde quiera te busqué

     Am7
Eras tú mi necesidad

C1             C2
Alce mi rostro y...


Coro:

          C            C2
Llegaste tú y todo cambio

          C                   C2
Llegaste tú, la esperanza triunfó

          Dm             G
Llegaste tú uuuu uuuu uu u,  volví a nacer.


e-----------------------13-12--------------------
B------13-------------13------13---------13------
G-9-10----10-9---9-10---------------9-10----10-9-
D------------------------------------------------
A------------------------------------------------
E------------------------------------------------


e--------13-15-
B------13------
G-9-10---------
D--------------
A--------------
E--------------


          C            C2
Llegaste tú y todo cambio

          C                   C2
Llegaste tú, la esperanza triunfó

          Dm             G
Llegaste tú uuuu uuuu uu u,  volví a nacer.


Final: G  y hacen un rasgueo hacia abajo Con C


--------------------------------------------------------------
--------------------------------------------------------------


Acordes normales : sin cejilla exepto por F y por G
les rekomiendo ke G lo token kon cejilla para ke se oiga un
pokito mejor jeje ;p


Otra Version por si tienen wueba de tokarla asi la
tengo de otra forma jeje nomas ke la pasada si es la korrecta
y ahi diskulpen no enkontre akorde ke susituyera a D#m
asi ke falto en esta transcripcion jojo xD

C
Hundida yo estaba, ahogada en soledad

Em
Mi corazón lloraba de un vacío total

Dm                           F
Todo lo intenté por donde quiera te busqué

     Am7               G
Eras tú mi necesidad.

C
Triste y desolada ya no pude soportar

Em
Más desesperada era imposible de estar

Dm                          F
Todo lo intenté por donde quiera te busqué

     Am7
Eras tú mi necesidad

  F            G
Alcé mi rostro y...


Coro:

          C            G
Llegaste tú y todo cambio

          C                   G
Llegaste tú, la esperanza triunfó

          Dm             G
Llegaste tú uuuu uuuu uu u,  volví a nacer.


Intermedio:

e-----------------------
B-------13/15-13--------
G-12/17-----------12----
D--------------------12-
A-----------------------
E-----------------------


C
Por tanto tiempo quise encontrar la solución

Em
a ese gran vacío que llevaba en mi interior

Dm                           F
Todo lo intenté por donde quiera te busqué

     Am7
Eras tú mi necesidad

  F            G
Alce mi rostro y...


Coro:

          C            G
Llegaste tú y todo cambio

          C                   G
Llegaste tú, la esperanza triunfó

          Dm             G
Llegaste tú uuuu uuuu uu u,  volví a nacer.


e-----------------------13-12--------------------
B------13-------------13------13---------13------
G-9-10----10-9---9-10---------------9-10----10-9-
D------------------------------------------------
A------------------------------------------------
E------------------------------------------------


e--------13-15-
B------13------
G-9-10---------
D--------------
A--------------
E--------------


          C            G
Llegaste tú y todo cambio

          C                   G
Llegaste tú, la esperanza triunfó

          Dm             G
Llegaste tú uuuu uuuu uu u,  volví a nacer.


Final: G  y hacen un rasgueo hacia abajo Con C


Espero y les haya gustado la rola la vdd para mi se oie
perfecta es komo la toka joy si kieren ver vean un video
de jesse y joy de esta kancion y van a ver jejeje ;p

Alguna duda o komentario a mi korreo jejeje;p

Saludos su servilleta : Edgar jejeje xD
Suggest correction
Give kudos to tab author, rate the tab!
1 2 3 4 5
comments
print report bad tab
guest
You may want to rate the tab now too:
select rating
Wanna post a correction for this tab? Suggest correction