Oops, an error
Loading. Please wait.

Tú Mi Poesía Tab

30 views 1 this week
no commentswrite comment
1 2 3 4 5
2 more votes to show rating
add to favorites
×
Save as Personal and add changes to this tab that will be seen only by you. Learn more ›
×
You can save this tab as Personal to edit and correct it or add notes. All changes will be seen only by you. Learn more »
save as personal
new!
launch autoscroll
font size
0
reset
how to read this tab
guitar tuner
Autoscroll
slow
fast
+/-
esc
set tempo
stop
(antes de comenzar)
 NOTA IMPORTANTE: La nota Am7 en esta canción se toca con un adorno*,
                  poniendo el dedo meñique en el tercer traste de la
                  primera cuerda. ASI

            E[-3-]
            B[-1-]
            G[-0-]
            D[-2-]
            A[-0-]
            E[-0-]


INTRODUCCIÓN:

E[-------------]
B[-1-0---------]
G[-----2-0-2/4-]
D[-------------]
A[-------------]
E[-------------]

E[----------------]
B[-1-0------------]
G[-----2-0-0/2----]
D[-------------0/2]
A[----------------]
E[----------------]

E[-------------]
B[-1-0---------]
G[-----2-0-2/4-]
D[-------------]
A[-------------]
E[-------------]

E[----------------]
B[-1-0------------]
G[-----2-0-0/2----]
D[-------------0/2]
A[----------------]
E[----------------]

G                          Am7
Ya me es imposible distinguir este dolor
F                            G
con año noche y día ha debilitado el corazón
G                              Am7
la piel pegada al hueso y la semilla de un amor
F                            G
creciendo en esa herida recordando tu sabor

CORO:

Am7        C     G                   D7
tu mi poesía aliméntame la inspiración
Am7           C         G             A
vuelve a mi vida y vitamíname el corazón
C                G                Am7
que mi mundo esta muriendo poco a poco
      G
sin ti

E[----------------]
B[-1-0------------]
G[-----2-0-0/2----]
D[-------------0-2]
A[----------------]
E[----------------]

G                          Am7
quiero que comprendas que sin ti yo no soy yo
F                            G
con cero pensamiento y un aviso en mi interior
G                              Am7
sin ti la luz que enciendo lo que en mi se apago
F                            G
mi alma se atormenta porque alguien la dejo

CORO:


Am7        C     G                   D7
tu mi poesía aliméntame la inspiración
Am7           C         G             A
vuelve a mi vida y vitamíname el corazón
C                G                Am7
que mi mundo esta muriendo poco a poco
      G
sin ti

SOLO:

                   G Am7 G G                    C Am7 D D* D
E[---5/7-5/7-5-3---3--3--3-3--11/12-11/12-10-8--0--0--2-3--2-]
B[-----------------3--1--3-3--------------------1--1--3-3--3-]
G[-----------------0--0--0-0--------------------0--0--2-2--2-]
D[-----------------0--2--0-0--------------------2--2--0-0--0-]
A[-----------------2--0--2-2--------------------3--0--0-0--0-]
E[-----------------3--0--3-3--------------------0--0--0-0--0-]


CORO:

Am7        C     G                   D7
tu mi poesía aliméntame la inspiración
Am7           C         G             A
vuelve a mi vida y vitamíname el corazón
C                G                Am7
que mi mundo esta muriendo poco a poco
      G
sin ti


FINAL:
   G                        Am7
si no me hicieras caso ignorando mi clamor
    F                       G
recojo mis pedazos y me escondo con el sol.


PD: Si desean que ponga las tablaturas del bajo hecho en guitarra
con otra afinación avísenme a kevin_bim@ o aquí mismo
déjenme un mensaje.
Suggest correction
Give kudos to tab author, rate the tab!
1 2 3 4 5
comments
print report bad tab
guest
Wanna post a correction for this tab? Suggest correction