Oops, an error
Loading. Please wait.

Eres Todo Poderoso Chords

313 views 3 this week
no commentswrite comment
1 2 3 4 5
x 3
add to favorites
launch autoscroll
font size
0
reset
transpose
0
reset
display chords
guitar tuner
Autoscroll
slow
fast
+/-
esc
set tempo
stop
Help us to improve Ultimate-Guitar.com Take our survey!
×
esta es la cancion completa como es bendiciones y adios

e)|----------------------|-----------------------|
B)|-----------7----------|----------7------------|
G)|-----7---7---7---7----|----7---7---7---7------|
D)|-7-9---9-------9---9-9|7-9---9-------9---9-9--|
A)|----------------------|-----------------------|
E)|----------------------|-----------------------|


   Bm                  G
La única Razón de mi adoración
D             A
Eres tú mi Jesús
   Bm             G
El único motivo para vivir
D              A(la segunda vez se pone F#)
Eres tú Mi Señor

      Bm          G
Mi única verdad esta en Ti
         D              A
Eres mi luz y mi salvación
      Bm           G
Mi único amor eres Tu Señor
        D             F#
Y por siempre te alabaré


Coro:
         Bm      G
Tu Eres Todo poderoso
      D             A
Eres Grande y Majestuoso
       Bm          G
Eres Fuerte e Invencible
         D           A
Y no hay nadie como Tú

  |         Bm           | E
e)|----------------------|
B)|-----------7----------|
G)|-----7---7---7---7----|
D)|-7-9---9-------9---9-9|
A)|----------------------|
E)|----------------------|

Se vuelve a repetir todo y luego:

Puente:
  |  Bm  |   G  |   D   |  A |  Bm  |   G  |    D    |  A |
e)|------|------|-------|----|------|------|-10-12-14|-12-|
B)|-3-5-7|-3-5-7|-10-8-7|-10-|-3-5-7|-3-5-7|---------|----|
G)|------|------|-------|----|------|------|---------|----|
D)|------|------|-------|----|------|------|---------|----|
A)|------|------|-------|----|------|------|---------|----|
E)|------|------|-------|----|------|------|---------|----|

Coro:
      C#m      A
Eres Todo poderoso
      E             B
Eres Grande y Majestuoso
       C#m          A
Eres Fuerte e Invencible
         E           B
Y no hay nadie como Tú

dudas al correo canzion_777music@ y mi correo perzonal es
dan1psd_music@
Suggest correction
Give kudos to tab author, rate the tab!
1 2 3 4 5
comments
print report bad tab
guest
You may want to rate the tab now too:
select rating
Wanna post a correction for this tab? Suggest correction