Oops, an error
Loading. Please wait.

Sumérgeme Tab

182 views 1 this week
no commentswrite comment
1 2 3 4 5
3 more votes to show rating
add to favorites
×
Save as Personal and add changes to this tab that will be seen only by you. Learn more ›
×
You can save this tab as Personal to edit and correct it or add notes. All changes will be seen only by you. Learn more »
save as personal
new!
launch autoscroll
font size
0
reset
how to read this tab
guitar tuner
Autoscroll
slow
fast
+/-
esc
set tempo
stop
            C                   C
 E|-------------------| |-------------------|
 A|-3-----------------| |-3-----------------|
 D|-------------------| |-------------------|
 G|---0-----0-------0-| |---0-----0-------0-|
 B|------1--------1--1| |------1--------1--1|
 e|------------0------| |------------0------|
  Cansado del camino

           Em                   Em
 E|-0-----------------| |-0-----------------|
 A|-------------------| |-------------------|
 D|-------------------| |-------------------|
 G|--0---0--------0---| |---0---0------0----|
 B|----0--------0---0-| |-----0------0---0--|
 e|----------0--------| |----------0--------|
   Sediento de ti

           F                      Dm
 E|-1--------------------| |----------------------|
 A|----------------------| |-0--------------------|
 D|----------------------| |----------------------|
 G|---2-----2--------2---| |---2-----2----------2-|
 B|------1--------1----2-| |-----3----------3-----|
 e|-------------1--------| |-------------1--------|
   Un desierto he cruzado   Sin fuerzas he quedado

          G
 E|-2---------------|
 A|-----------------|   G vis x 2
 D|-----------------|
 G|---0---0------0--|
 B|-----0------0---0|
 e|----------3------|
    Vengo a ti


  CORO:
        C
  sumerge
´                         Em
  me en el rio de tu espíritu
  F                 Dm
  necesito refrescar este seco corazón
  G
  sediento de ti.

  .En el coro va la misma secuencia de punteadas.
Suggest correction
Give kudos to tab author, rate the tab!
1 2 3 4 5
comments
print report bad tab
guest
Wanna post a correction for this tab? Suggest correction